Que música é esta aqui?

    Autor Mensagem
    Araujo100
    Veterano
    # mar/10 · Editado por: Araujo100


    Tentei no OT, mas... não adiantou muito. Vamos aqui então!

    e------------------------------------------------------
    B-5-5-5-5---5-3/5---3-1-3/5---5-5-5-3------------------
    G--------------------------------------2/4-------------
    D------------------------------------------------------
    A------------------------------------------------------
    E------------------------------------------------------


    e------------------------------------------------------
    B-------4-4-4-2----------------------------------------
    G----------------1/3-----------------------------------
    D------------------------------------------------------
    A------------------------------------------------------
    E------------------------------------------------------


    Toquem em 240 npm (4 notas por segundo). Negrito dura o dobro do tempo.
    Não é o solo dela e sim a melodia da letra.
    E quando pular de uma tab para outra, esperar 8 notas.
    É bastante conhecida.
    Foi um dos hits uns anos atrás. Até passou o comercial na TV.
    É bem suave.
    Não é em português.
    É um careca que canta ela (talvez).

    Juntei todas as dicas que eu coloquei no OT. Aqui, o pessoal, acho que sabe tocar tablatura.

    Marco Hietala
    Veterano
    # mar/10
    · votar


    Araujo100
    Você é muito, mas muito folgado.
    Nesse tempo todo você poderia gravar isso aí e postar no 4shared. Ou, no mínimo, fazer um arquivo do Guitar Pro.

    Tablatura é um meio de notação pra aprender quando já se conhece a música.

    DaniloReis
    Veterano
    # mar/10
    · votar


    isso é um jogo?

    cadojapan
    Veterano
    # mar/10 · Editado por: cadojapan
    · votar


    Que merda!!


    Realmente para de ser preguicoso e grava isso...isso se vc souber tocar!!

    Araujo100
    Veterano
    # mar/10
    · votar


    Marco Hietala
    É só tocar! 4 notas por segundo.

    DaniloReis
    Não!

    cadojapan
    É só tocar.

    LeandroP
    Moderador
    # mar/10
    · votar


    Araujo100

    Não é só tocar. Fica muito difícil ser ajudado só com a tablatura.

    Se ainda fosse uma partitura, tudo bem... mas tablatura não rola por razões óbvias.

    Tentei no OT, mas... não adiantou muito.

    Dá pra entender.

      Você não pode enviar mensagens, pois este tópico está fechado.
       

      Tópicos relacionados a Que música é esta aqui?