tom jobim

    Autor Mensagem
    rafa
    # dez/02


    tava tentando tirar umas musicas do tom jobim mas eu to achando mto dificil a troca de acordes e a formacao deles.... alguem tem algo pra me ajudar?

    Ps1c0
    # dez/02


    fala a musica q eu posso te ajudar com a batida e com as posições!!

    rafa
    # dez/02


    aguas de marco q eh a mais facil q eu achei

    LOW-FI
    # dez/02


    E AE RAFA,
    o negocio de Bossa Nova é escutar a musica mil vezez e se acustumar com a batidas e o ritmo do violao.
    Um exemplo da entrada de aguas de março que coloquei em Tab pra vc.

    E||------------|------------|-------------|-------------|------------ |
    B||-------5----|-------5----|-------5-----|-------5-----|-------5---- |
    G||-------5----|-------5----|-------5-----|-------5-----|-------5---- |
    D||-------5----|-------5----|-------5-----|-------5-----|-------5---- |
    A||------------|------------|-------------|-------------|------------ |
    E||--6---------|--6---------|--6-------6--|----6-----6--|--6--------- |
    [/T][T]
    [/T][T]


    Anônimo
    # dez/02


    E||------------|------------|-------------|-------------|------------ | 
    
    B||-------5----|-------5----|-------5-----|-------5-----|-------5--- - |
    G||-------5----|-------5----|-------5-----|-------5-----|-------5--- - |
    D||-------5----|-------5----|-------5-----|-------5-----|-------5--- - |
    A||------------|------------|-------------|-------------|----------- - |
    E||--6---------|--6---------|--6-------6--|----6-----6--|--6-------- - |


      Enviar sua resposta para este assunto
              Tablatura   
      Responder tópico na versão original
       

      Tópicos relacionados a tom jobim