Eaw gente eu to querendo saber alguns exercicios para velocidade,tecnica etc

    Autor Mensagem
    rafilsk
    Veterano
    # jul/07


    Ola pessoal eu quero saber se voces
    tem alguns exercicios de guitarra para velocidade,tecnica etc.
    E tambem exercicios para a palhetada ficar mais rapida.

    Espero que possam ajudar.

    _FrEd_
    Veterano
    # jul/07
    · votar


    rafilsk

    Paciência + metronomo pra começar...

    Use a busca que deve ter um monte de exercicio, mas tu pode treinar alguma musika que vc ache dificil...

    Midgard
    Veterano
    # jul/07
    · votar


    1234

    rafilsk
    Veterano
    # jul/07
    · votar


    E escalas ajudam?

    _FrEd_
    Veterano
    # jul/07
    · votar


    rafilsk

    Claro

    Eddie Van Halen 5150
    Veterano
    # jul/07
    · votar


    rafilsk
    E escalas ajudam?
    Logico

    Eddie Van Halen 5150
    Veterano
    # jul/07
    · votar


    Tem uma técnica muito interessante que é a sweep picking que consiste em manter a direção da palhetada sempre para uma direção, ele é bastante usado em arpejos.
         Em                                   
    
    E||------------------7--12--7---------------|
    B||---------------8------------8------------|
    G||------------9------------------9---------|
    D||---------9------------------------9------|
    A||--7--10------------------------------10--|
    E||-----------------------------------------|


    C
    -----------------------8--------------------|
    --------------------8-----8-----------------|
    -----------------9-----------9--------------|
    -------------10-----------------10----------|
    ---------10-------------------------10------|
    --8--12---------------------------------12--|


    G
    ----------------------10--15--10------------------|
    ------------------12--------------12--------------|
    --------------12----------------------12----------|
    ----------12------------------------------12------|
    --10--14--------------------------------------14--|
    --------------------------------------------------|


    D B
    ------------------14--17--14--11------------------|--------------------||
    --------------15------------------12--------------|--------------------||
    ----------14--------------------------11----------|--------------------||
    ------16----------------------------------13------|--14----------------||
    --17------------------------------------------14--|--------------------||
    --------------------------------------------------|--------------------||


    rafilsk
    Veterano
    # jul/07
    · votar


    _FrEd_
    valeu vo pesquisa um pouco depois.

    Midgard
    vlw eu ja fasia esse

    Eddie Van Halen 5150
    valeu pelo exercicio.


    mais alguem tem alguma dica?

    Silas Hammett
    Veterano
    # jul/07
    · votar


    Faz os exercicios do Mr.FastFinger que vc vai ficar fera!! ehehehe
    Mas começa devagar com metronomo!

    GUGALOO
    Veterano
    # jul/07
    · votar


    rafilsk
    Eu penso que para ganhar velocidade, é bom vc ter um CD de bateria, o meu vai de 60 bpm até 160 bpm, aí vai treinando escalas, arpejos e etc, e com o tempo vai aumentando as batidas, caso seje difícil um cd de batera, vai de metrônomo mesmo, fazendo exercícios em colcheias, semi colcheias, tríades, sextina e etc..

    rafilsk
    Veterano
    # jul/07
    · votar


    Silas Hammett e
    GUGALOO
    Onde eu aranjo um metronomo?

    Thedekai
    Veterano
    # jul/07
    · votar


    rafilsk
    tem software pra PC que é metronomo não precisa comprar um, ao não ser que vc queira

    rafilsk
    Veterano
    # jul/07
    · votar


    Thedekai
    Ah veih o problema e qe eu num manjo em pc,mals.
    Mais voce num tem um progama ai nao?
    eh pq eu num fasso a minima oqe eh software.
    foi mal ai

    MarcosBorba
    Veterano
    # jul/07
    · votar


    cara, tu ta fudido no mundo...
    arrume umas aulas de informática...
    SOFTWARE = PROGRAMA DE COMPUTADOR
    PROGRAMA DE COMPUTADOR = aquele trequinho que vc vê no computador como internet explorer (navegar na internet), word (produzir textos), cada programa tem uma função.
    agora para vc pegar o metronomo clica na paradinha azul e depois em "Faça o donload". Então o programa será salvo no seu computador e aí eh só vc usar ele.

    CLICA AQUI CLICA AQUI CLICA AQUI

    rafilsk
    Veterano
    # jul/07
    · votar


    MarcosBorba
    Vleu gente ja consegui treina com metronomo

      Enviar sua resposta para este assunto
              Tablatura   
      Responder tópico na versão original
       

      Tópicos relacionados a Eaw gente eu to querendo saber alguns exercicios para velocidade,tecnica etc