ajuda com "pestana" em sweeps

    Autor Mensagem
    luc_sky
    Veterano
    # mai/07


    opa pessoal, tudo beleza?
    já tem uns meses que eu toco guitarra...só que não tenho dinheiro para pagar a um professor...minha mãe terminou conservatório em piano, aí teoria aprendi muita coisa com ela...aê aprendo tudo na marra. hehe
    Estava praticando sweeps na guitar...só que me veio essa dúvida:

    e--------12--17--12------------------------------12------
    B-------------------13------------------------13---------
    G----------------------14------------------14------------
    D-------------------------14------------14---------------
    A----------------------------15--12--15------------------
    E--------------------------------------------------------

    nesse caso, como faria para tocar essas casas 14? faria uma pestana? e como faço para o som nao embolar, já que vou estar fazendo meio que uma pestana?
    abraços!

    Abigobaldo
    Veterano
    # mai/07
    · votar


    axo q e com pestana sim, ja fiz um exercicio parecido, cara eu axo q a "manha" eh fazer tipo uma gangorra com o dedo, entende? pra corda que vc tocou antes abafar e sair a proxima, axo q e isso, flwzs

    Guitar_L
    Veterano
    # mai/07 · Editado por: Guitar_L
    · votar


    luc_sky
    Exatamente o que o Abigobaldo falou. Vc faz a pestana (apenas nas 2 cordas), toca o primeira nota, na segunda vc já inclina um pouco o dedo para abafar e não embolar tudo. É bem complicado no começo, mas treinando fica legal.
    Abraços

    luc_sky
    Veterano
    # mai/07
    · votar


    poxa...brigadão aê! =D
    quem nunca fez aula sabe como é sair por aí pegando informações corretas.
    o porteiro do meu prédio tem uma Jackson. Ele me disse que nesse tipo de "pestana" você deve tocar uma nota, tirar o dedo da casa e põe de novo, para fazer a outra nota.
    fiquei tentando esse método aqui...mas não vejo em canto algum alguem fazer desse jeito 0.o

    abraços! e obrigado!

    Thedekai
    Veterano
    # mai/07
    · votar


    vc faz uma pestana de modo que cada parte do seu dedo forçe a casa em cada corda, nao forçe tudo ao mesmo tempo se não pode soar como um acorde sujo e estragando todo o seu arpeggio
    treine bastante pra vc dominar isso direitinho arpeggio eh um saco pra pegar a manha
    abraço

    Thedekai
    Veterano
    # mai/07 · Editado por: Thedekai
    · votar


    1 4 1 2 3 3 4 1 4 3 3 2 1
    e--------12--17--12---------------------------------------12------ 
    
    B-----------------------13---------------------------------13---------
    G---------------------------14-------------------------14------------
    D-------------------------------14-----------------14---------------
    A-----------------------------------15--12--15------------------
    E--------------------------------------------------------


    faça com essa digitação

    polaroid_
    Veterano
    # mai/07
    · votar


    tem video aula do gustavo guerra falando sobre esse tipu de execução...



    obs: vão jah meter o pau no cara...aheuhaeua...

    luc_sky
    Veterano
    # mai/07
    · votar


    vlw ae pela ajuda!! =D

    hehuehueheuheuhe
    por que o pessoal daqui do forum não curte muito o Gustavo Guerra?

    Villts
    Veterano
    # mai/07
    · votar


    luc_sky
    o porteiro do meu prédio tem uma Jackson. Ele me disse que nesse tipo de "pestana" você deve tocar uma nota, tirar o dedo da casa e põe de novo, para fazer a outra nota.

    Porteiro trúe!
    \o/

    Valeu ae, que eu também tava atras disso. =)

    alfredmad
    Veterano
    # mai/07
    · votar


    luc_sky

    Cara, vc já domina a palhetada alternada? Ñ adianta nada avançar na técnica se vc ñ domina o básico.

    A digitação é como Thedekai falou, mas para começar toque a partir desta parte:

    Digitação: 1 4 3 3 2 1

    e----------------------------12------
    B------------------------13----------
    G--------------------14--------------
    D----------------14------------------
    A--------12--15---------------------
    E-------------------------------------

    Vc ñ deve fazer uma pestana com o dedo médio para tocar as notas mi e lá (D-14 e G-14). Vc vai tocar com o dedo médio a nota mi e só então abaixar o dedo para tocar a nota lá.

    Tocando devagar vc vai perceber que quando abaixa o dedo para tocar a corda abaixo, automaticamente o dedo desencosta levemente da corda de cima, abafando-a.

    Outra coisa, ninguem consegue tocar sweep picking limpos com distorção elevada. Toque primeiro usando palhetada alternada, o som do sweep tem q sair tão forte quanto o das cordas palhetadas anternadamente.

    Depois pratique com a guitarra limpa e só depois com um pouco de distorção e/ou compressor.

    james_the_bronson
    Veterano
    # mai/07
    · votar


    Isso aí se chama rolling. Eu estava começando a estudar há pouco tempo:


    e------------------------------------------------------
    B---------5-6-------------7-8--------------------------
    G-------5-----6---------7-----8------------------------
    D-----5---------6-----7---------8----------------------
    A---5-------------6-7-------------8--------------------
    E------------------------------------------------------


    Casa 5 com dedo 1, casa 6 com dedo 2, casa 7 com dedo 3, e casa 8 com dedo 4. Use a pior distorção que você tiver, quando mais seca, melhor...

    ohm777
    Veterano
    # mai/07
    · votar


    ninguem consegue tocar sweep picking limpos com distorção elevada

    O q? eu consigo olha q eu uso a distorçao da minha pedalera digitech e ainda mais um OD-3 boss como booster.

    Snakepit
    Veterano
    # mai/07
    · votar


    luc_sky

    É bem dificil fazer sweep, acho umas das tecnicas mais dificeis de aprender. Eu tambem tenho muita dificuldade em fazer direitinho. Pra ter uma ideia melhor de como treinar ninguem melhor que o Petrucci. Mesmo sem saber ingles da pra entender a aula:



      Enviar sua resposta para este assunto
              Tablatura   
      Responder tópico na versão original
       

      Tópicos relacionados a ajuda com "pestana" em sweeps