Notal pedal, alguem tem algo sobre?

    Autor Mensagem
    tomatinho
    Veterano
    # ago/06


    fala galera
    alguem tem algum exercicio bacana de nota pedal ai pra disponibilizar?

    procurei na busca e nao achei nada a respeito!

    eh isso
    valeuuuuuu

    eeevee
    Veterano
    # ago/06
    · votar


    tomatinho
    putz, hoje nem dá pra arrumar isso pra tu, mas segunda eu passo umas parada disso pra tu.

    marcio_zav
    Veterano
    # ago/06
    · votar


    nota pedal = pedal point?!

    eeevee
    Veterano
    # ago/06
    · votar


    marcio_zav
    nota pedal = pedal point?!
    isso, isso, isso.

    marcio_zav
    Veterano
    # ago/06
    · votar


    eeevee

    o/


    tomatinho

    pra comecar, pega uns licks do Malmsteen

    marcio_zav
    Veterano
    # ago/06
    · votar



    E||--19-19-17-19-15-19-14-19----19-17-19-15-19-14-19-|
    B||--------------------------17----------------------|
    G||--------------------------------------------------|
    D||--------------------------------------------------|
    A||--------------------------------------------------|
    E||--------------------------------------------------|

    -----19-17-19-15-19-14-19----19----19-------||
    --17----------------------17----16----17~---||
    --------------------------------------------||
    --------------------------------------------||
    --------------------------------------------||
    --------------------------------------------||


    eeevee
    Veterano
    # ago/06
    · votar


    marcio_zav
    \o/

    pra comecar, pega uns licks do Malmsteen(2)

    pega tb algo de Bach. /o/

    marcio_zav
    Veterano
    # ago/06
    · votar


    eeevee
    pega tb algo de Bach. /o/


    direto da fonte ;)

    hahaah

    eeevee
    Veterano
    # ago/06
    · votar


    marcio_zav
    tava tirando um prelúdio do Cravo bem temperado, pedal point do início ao fim. /o/

    marcio_zav
    Veterano
    # ago/06
    · votar


    eeevee

    Vixi! Bach é o Cara. o/

    eeevee
    Veterano
    # ago/06
    · votar


    marcio_zav
    \o\

    marcio_zav
    Veterano
    # ago/06 · Editado por: marcio_zav
    · votar


    Toque esse em tercinas


    E||---12------14------15------17------15------14------|
    B||-------12------12------12------12------12------12--|
    G||*--------------------------------------------------|
    D||*--------------------------------------------------|
    A||---------------------------------------------------|
    E||---------------------------------------------------|

    --12------14------15------17------15------14------|
    ------13------13------13------13------13------13--|
    --------------------------------------------------|
    --------------------------------------------------|
    --------------------------------------------------|
    --------------------------------------------------|

    --14------15------17------19------17------15------|
    ------15------15------15------15------15------15--|
    --------------------------------------------------|
    --------------------------------------------------|
    --------------------------------------------------|
    --------------------------------------------------|

    --14------15------17------19------17------15-------||
    ------15------15------15------15------15------15---||
    --------------------------------------------------*||
    --------------------------------------------------*||
    ---------------------------------------------------||
    ---------------------------------------------------||


    marcio_zav
    Veterano
    # ago/06
    · votar


    eeevee

    Grava esse Preludio ae pokemon!

    eeevee
    Veterano
    # ago/06
    · votar


    marcio_zav
    tô com preguiça de tirar os 6 últimos compassos. /o/

    marcio_zav
    Veterano
    # ago/06
    · votar


    eeevee

    putz....hahaha

    eeevee
    Veterano
    # ago/06
    · votar


    marcio_zav
    \o\

    marcio_zav
    Veterano
    # ago/06
    · votar


    eeevee
    Ow Ivi, da uma ajudinha ai, plisi!
    http://forum.cifraclub.com.br/forum/3/141410/

    nettoroses
    Veterano
    # ago/06
    · votar


    tomatinho
    criei uma especialmente pra tu
    saiu do forno agora ^^
    Pista 1

    E||--17-15-17-13-17-12-17----19-17-19-15-19-14-19----||
    B||----------------------------15--------------------------17-||

    tomatinho
    Veterano
    # ago/06
    · votar


    era isso msm
    hehe valeu galera =]

    marcio_zav
    Veterano
    # ago/06
    · votar


    Riffs asssim tb seriam pedal point???

    E||----------------------------------||
    B||----------------------------------||
    G||------5-----7-----9-----7-----5-7-||
    D||--7-7---7-7---7-7---7-7---7-7-----||
    A||----------------------------------||
    E||----------------------------------||


    Blackus
    Veterano
    # ago/06
    · votar


    marcio_zav
    sim

    MatheusMX
    Veterano
    # ago/06
    · votar



    e-12--12--12--12--12--12--12--12-----------------------
    B---15--13--12--------------12--13---------------------
    G---------------14--13--14-----------------------------
    D------------------------------------------------------
    A------------------------------------------------------
    E------------------------------------------------------


    marcio_zav
    Veterano
    # ago/06
    · votar


    EduArdanuy

    assim é true, com salto de cordas ^^

    Blackus
    Veterano
    # ago/06
    · votar


    EduArdanuy
    Fuga em Dm de Bach né?

    marcio_zav
    Veterano
    # ago/06
    · votar


    Falando em Bach,
    ele deve esta se contorcendo na cova.....haha
    http://youtube.com/watch?v=j9JkDNyZ-PQ

      Enviar sua resposta para este assunto
              Tablatura   
      Responder tópico na versão original
       

      Tópicos relacionados a Notal pedal, alguem tem algo sobre?