qual a musica dessa intro?

    Autor Mensagem
    Patola
    Veterano
    # ago/03


    tem um jogo: rock 'n' roll racing, q tem uma musikinha na intro, q eu axu q eh a msm da intro dakele filme o pestinha

    eh um rock antigaum, keria saber o nome dessa musica e se possivel a tab dela
    t+

    cuiaman
    Veterano
    # ago/03
    · votar


    Uma das musicas q ue sei q toca no rock 'n' roll racing é do black sabbath

    Seu Madruga
    Veterano
    # ago/03
    · votar


    ce deve ta falando de born to be wild, do steppenwolf...

    aqui a intro:


    |---------------------------------------|
    |---------------------------------------|
    |-9---x-x--9---x--9---x-9---------------|
    |-9---x-x--9---x--9---x-9---10p9--12p9--|
    |-7---x-x--7---x--7---x-7---7-----7-----|
    |---------------------------------------|



    |---------------------------------------|
    |---------9---9-------------------------|
    |---------9---9-------------------------|
    |---------9---9--10p9--12p9-------------|
    |---------7---7--7-----7----------------|
    |-0-0-0-0-------------------------------|


    A5 D5 E5 A5 E5 D5
    |--------------------------------|--------------------------------|
    |--------------------------------|--------------------------------|
    |-------------7------------9-----|--------------9---------7-------|
    |-7-----------7------------9-----|---7----------9---------7-------|
    |-7-----------5------------7-----|---7----------7---------5-------|
    |-5------------------------------|---5----------------------------|


    pegue ela completa em

    http://www.guitarists.net/tab/bands.cfm/steppenwolf.html

    guschard
    Veterano
    # ago/03
    · votar


    acho q eh a paranoid
    a intro eh

    e------------------------------------------------------\
    B------------------------------------------------------|
    G-----------7h9-----7h9--------------------------------|
    D-9-9-9-7h9-----7h9------------------------------------|4x
    A-7-7-7------------------------------------------------|
    E------------------------------------------------------/


    Patola
    Veterano
    # ago/03
    · votar


    nenhuma das 2 =(
    po, tipo, axu q no filme o pestinha toca ela tb, axu q o cara no inicio do vocal fica flnd: fi-fire...fi-fi-fire
    algo assim...essas 2 me disseram eu conheço ;)
    valeu por enkuanto =)

    LeandroDF
    Veterano
    # ago/03
    · votar


    em falar nisso... onde posso baixar o rock'n roll racing pra jogar heim???

    Patola
    Veterano
    # ago/03
    · votar


    uHAihauahIAh
    LeandroDF
    eu procurei no cade bixo, demoro uma cara. procura por emuladores msm, eu uso o znes pq da pa brinca na net com ele

    Oasis
    Veterano
    # ago/03
    · votar


    bad to the bone do george thorogood

    Patola
    Veterano
    # ago/03
    · votar


    valeu oasis, vo downloda agora

    JaCaMaN
    Veterano
    # ago/03
    · votar


    tem a highway star do deep purple

    Overdoser
    Veterano
    # ago/03
    · votar


    onde tem um site bom de emuladores pra eu copiar?

    Unknown
    Veterano
    # ago/03
    · votar


    Jimi Hendrix - Fire, uahahahaha....

    gil brother
    Veterano
    # set/03
    · votar


    não é aquela musica do elvis?

      Enviar sua resposta para este assunto
              Tablatura   
      Responder tópico na versão original
       

      Tópicos relacionados a qual a musica dessa intro?