sugestao de solos e musicas

    Autor Mensagem
    vitor
    Veterano
    # ago/03


    ae galera to meio sem solos nem musicas pra tocar...vcs podiam sugerir un solos(nao mto foda)e musicas ae!valeu

    vitor
    Veterano
    # ago/03
    · votar


    falae galera

    Kirk
    Veterano
    # ago/03
    · votar


    fala pra gente oq vc curte neh?

    Ferrari
    Veterano
    # ago/03
    · votar


    Ow q tipo de musik vc curte??

    vitor
    Veterano
    # ago/03
    · votar


    metal

    vitor
    Veterano
    # ago/03
    · votar


    falem ae

    guschard
    Veterano
    # ago/03
    · votar


    wastin love
    easy e loko

    guschard
    Veterano
    # ago/03
    · votar


    akela intro da wastin love
    vo posta a tab aki

    guschard
    Veterano
    # ago/03
    · votar



    e------------------------------------------------------
    B-------12-------------15-13-12----12------------------
    G-12-14--------13b--------------14----14-12-11---------
    D-----------14-----14----------------------------------
    A------------------------------------------------------
    E------------------------------------------------------


    acho q eh assim, n to com a guitarra aki pra testa, mas eu me lembro assim
    qq errinho q tiver e d 1 ou 2 casas no maximo e eh facinho d concerta

    king_arthur
    Veterano
    # ago/03
    · votar


    o meu, se tu curte pink floyd, tenta toca o solo de mother, foi o primero solo q eu aprendi...
    to com ´pressa agora mas daqui a poco eu posto a tab...

    jaoguita
    Veterano
    # nov/03
    · votar


    sultans of swing

    e-------26 56 56 5 9 98-----------------------------------------------
    B------------------------------------------------------
    G------------------------------------------------------
    D------------------------------------------------------
    A------------------------------------------------------
    E------------------------------------------------------


    LeSPaUl
    Veterano
    # nov/03
    · votar


    ae kra usa a busca

    Freiheit
    Veterano
    # nov/03
    · votar


    meu
    aquele seu solo inicial da wasting love ta todo errado

    Qdo eu tiver com tempo e paciencia eu posto aqui...

    GuitarMan
    Veterano
    # nov/03
    · votar


    master of puppets essa e muito boa

    Dave Murray
    Veterano
    # nov/03
    · votar


    guschard
    tah errado..

    guitarra 1:
    .

    e-------------------------------------
    B---7-8----10^-7---12-10-8-7-8-7------
    G-9------------------------------9-7--
    D-------10----------------------------
    A-------------------------------------
    E-------------------------------------

    .
    guitarra 2
    .

    e------------8^------10-8-7----7---------
    B-8--10-12------10----------10---10-8-7--
    G----------9-----------------------------
    D----------------------------------------
    A----------------------------------------
    E----------------------------------------


      Enviar sua resposta para este assunto
              Tablatura   
      Responder tópico na versão original
       

      Tópicos relacionados a sugestao de solos e musicas