vejam se ta certo - campo harmonico

    Autor Mensagem
    Léo
    Veterano
    # ago/05 · Editado por: Léo


    eu to estudando o campo harmonico e to fazendo o de do essas sao as triades


    t c d e f g a b
    3 e f g a b c d
    5 g a b c d e f
    C Dm Em F G Am Bm


    ta certo ae os acordes?

    GuitarHome
    Veterano
    # ago/05
    · votar


    Perfeitamente correto

    Léo
    Veterano
    # ago/05
    · votar


    GuitarHome
    se posto antes ou depois q eu editei? pq eu sem qre apertei enter antes de escreve a msg

    GuitarHome
    Veterano
    # ago/05
    · votar


    antes HGAUEhaeaOIehaOEAHOIEHOI

    Léo
    Veterano
    # ago/05
    · votar


    GuitarHome
    heuhauheuhaueahe

    vinsanity
    Veterano
    # ago/05
    · votar


    tá certo

    Léo
    Veterano
    # ago/05
    · votar


    vinsanity
    so to com uma duvidano B pq as notas sao B D e F dai F e quinta bemol, isso nao muda nada no acorde?

    Extremist
    Veterano
    # ago/05
    · votar


    Léo

    Sim, na verdade não é Bm, eh Bm(b5) ou usando tétrades, Bm7(5b) que no caso seria o acorde meio diminuto. flw

    LeandroP
    Moderador
    # ago/05
    · votar


    Léo

    so to com uma duvidano B pq as notas sao B D e F dai F e quinta bemol, isso nao muda nada no acorde?

    É justamente essas diferenças que caracterizam o acorde. Forme o campo hamônico agora com tétrades (4 notas), incluindo as 7as.

    Você vai notar outras diferenças.

    Léo
    Veterano
    # ago/05
    · votar


    LeandroPanucci
    eu sei, mas se o F eh quinta bemol o nome do acorde fica como Bm o q?

    Passoka
    Veterano
    # ago/05
    · votar


    Léo
    eu sei, mas se o F eh quinta bemol o nome do acorde fica como Bm o q?


    Este é um B Lócrio. B meio diminuto.

    Léo
    Veterano
    # ago/05
    · votar


    Passoka
    ah soh... ele ta no campo harmonico de do maior entaum?

    tenho otra duvida, se eu tiver uma progressao com alguns acordes do campo
    harmonico de do q acorde q vai definir o modo q eu improvisar?

    Léo
    Veterano
    # ago/05
    · votar


    vish mano complicada ess parada...

    meu psor me passo uns shapes dos modos pra eu decora

    F jonio
    
    e-------------------------------3-5-6---------------------
    B-------------------------3-5-6---------------------------
    G-------------------2-3-5---------------------------------
    D-------------2-3-5---------------------------------------
    A-------1-3-5---------------------------------------------
    E-1-3-5---------------------------------------------------


    Gm dórico
    
    e--------------------------------5-6-8--------------------
    B--------------------------5-6-8--------------------------
    G--------------------3-5-7--------------------------------
    D--------------3-5-7--------------------------------------
    A-------3-5-7---------------------------------------------
    E-3-5-6---------------------------------------------------


    Am frigio
    
    e--------------------------------6-8-10-------------------
    B-------------------------6-8-10--------------------------
    G-------------------5-7-9---------------------------------
    D-------------5-7-8---------------------------------------
    A-------5-7-8---------------------------------------------
    E-5-6-8---------------------------------------------------


    Bbemol lidio
    
    e-------------------------------------8-10-12-------------
    B-----------------------------8-10-11---------------------
    G----------------------7-9-10-----------------------------
    D---------------7-8-10------------------------------------
    A--------7-8-10-------------------------------------------
    E-6-8-10--------------------------------------------------


    C mixolidio
    
    e------------------------------------------10-12-13-------
    B---------------------------------10-11-13----------------
    G-------------------------9-10-12-------------------------
    D-----------------8-10-12---------------------------------
    A---------8-10-12-----------------------------------------
    E-8-10-12-------------------------------------------------


    Dm eolio
    
    e----------------------------------------------12-13-15---
    B-------------------------------------10-13-15------------
    G----------------------------10-12-14---------------------
    D-------------------10-12-14------------------------------
    A----------10-12-13---------------------------------------
    E-10-12-13------------------------------------------------


    E meio diminuto Locrio
    
    e----------------------------------------------13-15-17---
    B-------------------------------------13-15-17------------
    G----------------------------12-14-15---------------------
    D-------------------12-14-15------------------------------
    A----------12-13-15---------------------------------------
    E-12-13-15------------------------------------------------


    dai eu pergunto, se os modos sao todos iguyais ao jonio, so o q define eh acorde, como eu vo saber que modo que eh se eu estou usando acordes do campo hamonico de do????

    Léo
    Veterano
    # ago/05
    · votar


    meu professor disse pra eu usar os modos de do qnd os acordes forem do campo harmonico de do

    mas o q ele quis dizer?
    eh pra eu usar C jonio, C dorico, C frigio, C lidio, C mixolidio, C eolio e C locrio

    ou pra usar C jonio, D dorico, E Frigio, F lidio, G mixolidio, A eolio e B lorico

    ?????????????????

    pq se eu for usar a segunda opçao vai ser tudo igual

    Léo
    Veterano
    # ago/05
    · votar


    algm????

    Passoka
    Veterano
    # ago/05
    · votar


    Léo
    Sim, um B Lócrio está no campo harmônico de C maior.

    Quanto ao modo você pode estar utilizando qualquer um desde que respeitando a Harmonia.

    Por exemplo, se a música estiver em C maior, você pode usar qualquer dos modos do campo de C maior, C jônio, D dórico, etc. ou ainda modular. Por exemplo, se estiver rolando um C maior na harmonia e você improvisar em C mixolídio, você alterou a intenção do C jônio para mixolídio. Se soltar uma penta menor 7, irá soar mais blues. Mas cuidado porque quando mudar o compasso, pode pedir uma resolução imediata na tônica para não soar muuuito outside.

    Léo
    Veterano
    # ago/05
    · votar


    Passoka
    mas tipo se eu solar num D dorico vai te intençao de C jonio neh?

    Passoka
    Veterano
    # ago/05
    · votar


    Léo
    Em teoria sim (vc diz se estiver rolando um C maior na base, certo?) mas lembre-se que sempre que você muda o shape parece que fazemos um improviso diferente, acabamos resolvendo na tônica do shape, chamando o bend da quinta do shape, tudo isso acaba dando outra sonoridade.

    Léo
    Veterano
    # ago/05
    · votar


    Passoka
    mas se eu quise que soe como dorico, eu tenho q usa o C dorico neh?

    Passoka
    Veterano
    # ago/05
    · votar


    Léo
    Aí poderá soar meio estranho, pq está rolando um C maior na base e você solando em C dórico. Nunca testei.

    Léo
    Veterano
    # ago/05
    · votar


    Passoka
    mas se eu tiver a intençao de solar com dorico????? se usar do dorico vai soar como c jonio, se eu quiser q soe como dorico eu uso o q?

    Passoka
    Veterano
    # ago/05
    · votar


    Léo
    O que você pode fazer é solar em D dórico e pensar nas notas alvo de D dórico. Repousar e resolver nelas.

    Passoka
    Veterano
    # ago/05
    · votar


    Mas a Harmonia tem de cooperar :P

    Léo
    Veterano
    # ago/05
    · votar


    Passoka
    eh mas em d dorico vai soar com c jonio e nao eh isso q eu qro

    LeandroP
    Moderador
    # ago/05
    · votar


    Léo

    Você não entendeu ainda o que o Passoka quer dizer.

    Você solar em D dórico pensando na escala de Dó, é obvio que o som será Dó. Agora se você pensar nas notas que formam um acorde dórico, a coisa muda de figura... sem mudar nota nenhuma.

    Qual é a graça dos modos se no fundo são as mesmas notas na escala???

    Quando você monta um acorde da escala maior, selecionando as notas ímpares da escala (1, 3, 5 e 7), você pode fazer a mesma coisa com os outros modos.

    C jônio:

    C - D - E - F - G - A - B - C

    (Notas ímpares desta escala --> 1, 3, 5 e 7 --> C, E, G e B)


    D dórico:

    D - E - F - G - A - B - C - D

    (Notas ímpares desta escala --> 1, 3, 5 e 7 --> D, F, A e C)


    Veja que o lance mudou, e toda aquela idéia maior da escala passou a ser menor, em função de você estar pensando em D dórico, e não mais na escala maior de Dó (C jônio).

    É um negócio que faz toda a diferença, mas passa despercebido pelos desantentos (sem nehuma ofença, quem não é desatento?)

    22222
    Veterano
    # ago/05
    · votar


    isso eh facil, no campo de C maior vc usa a escala de C maior repousando nas notas e nas tensões do acorde q estah sendo tocado no momento

    paulao_jazz
    Veterano
    # ago/05
    · votar


    gente, cuidado com algumas coisas...

    a TRIADE postada pelo Léo, si - ré - fá, é uma TRIADE DIMINUTA, e não um acorde meio diminuto. Pra ser meio diminuto, precisa da 7a menor, aí vira tetrade.

      Enviar sua resposta para este assunto
              Tablatura   
      Responder tópico na versão original
       

      Tópicos relacionados a vejam se ta certo - campo harmonico