Alguém de Belo Horizonte tem um baixo barato?

    Autor Mensagem
    Bruno Luiz
    Veterano
    # nov/04


    Alguém de Belo Horizonte Tem um baixo barato p/ eu poder comprar?

    Bruno Luiz
    Veterano
    # nov/04
    · votar


    comprar quando tiver dinheiro

    RodrigoBR
    Veterano
    # nov/04
    · votar


    DICA: Jornal balcão

    Bruno Luiz
    Veterano
    # nov/04
    · votar


    ajuda ae vei,to kerenu tok baxo

    e---2---------4---------8-8------12--------------------------
    B------------6-------9--------7---------------------------
    G----------5-----------------------------11---------------
    D------3----------1--------------------------------------
    A--------------------5----------------------------------
    E--------------5----------------12------------------------


    Bruno Luiz
    Veterano
    # nov/04
    · votar


    ajuda ae vei,to kerenu tok baxo

    e---2---------4---------8-8------12--------------------------
    B------------6-------9--------7---------------------------
    G----------5-----------------------------11---------------
    D------3----------1--------------------------------------
    A--------------------5----------------------------------
    E--------------5----------------12------------------------


    Beatlemaniac
    Veterano
    # nov/04
    · votar


    bruno meu vizinho ta vendendo o baixo dele por uns 500 a 600 conto vei eu axo q eh por ai. eh um washburn jazzbass ( axo o nome do modelo eh esse) se vc tiver interessado me manda um e-mail q eu falo com ele pra te fazer um precin especial
    toninhoar15@yahoo.com.br

    Beatlemaniac
    Veterano
    # nov/04
    · votar


    onde vc mora tb ?

    Beatlemaniac
    Veterano
    # nov/04
    · votar


    eh o bairro viu ? ja sei q vc mora em bh

    Bruno Luiz
    Veterano
    # nov/04
    · votar


    moro no caiçara.

    197873
    Veterano
    # nov/04
    · votar


    Musical Brother. Espírito Santo com Caetés.

      Enviar sua resposta para este assunto
              Tablatura   
      Responder tópico na versão original
       

      Tópicos relacionados a Alguém de Belo Horizonte tem um baixo barato?