tabs do NukeBass??

    Autor Mensagem
    WormKrash
    Veterano
    # mai/04


    e aeee pessoal!
    andei ouvindo alguns solos do Nuke (realmente mt bons), e me chamou atençao aquela parte rápida que ele brinca com as escalas no fim de várias musicas. Pesquisei aqui, mas nao achei nada, tem tablatura disso?

    abraço

    DC Master
    Veterano
    # mai/04
    · votar


    WormKrash
    Não tem não (pelo menos até onde eu sei...
    Mas o kra é muito 10 (DEZ)...

    Psyco_Terapy
    Veterano
    # mai/04
    · votar


    WormKrash
    pede pra ele, o cara é gente fina pra caralho!

    WormKrash
    Veterano
    # mai/04
    · votar


    Psyco_Terapy

    vamos ver se ele dá uma passada pelo topico ;)

    PuNk Bass
    Veterano
    # mai/04
    · votar


    Vamos esperar.. vai que ele saiba onde eu possa arranjar umas tabs do Manring...

    nukebass
    Veterano
    # mai/04 · Editado por: nukebass
    · votar


    Opa galera! Hehehe! Vocês pegaram meu ponto fraco... tenho muuuuita preguiça de escrever TAB's... :-D
    De qualquer forma, tem algumas coisas que eu andei escrevendo... mas nunca uma música completa... sempre alguns "pedaços". De qualquer maneira eu acho que ajuda. ;-)

    Essa Tab é do começo e do fim de "A New Beginning"

                      *A.H 
    
    C||---------------13--13----------|----------9--------------------|
    G||--------14/16------------------|-------11---13-11-9------------|
    D||-----14------------------------|----11--------------11--12-14--|
    A||--12-------------------------7/|--9----------------------------|
    E||-------------------------------|-------------------------------|
    B||-------------------------------|-------------------------------|



    |---------------13-----------------|------------8-------------|
    |--------14/16------14-------------|------9/11----------------|
    |-----14---------------14-12-11----|----9----------9----------|
    |--12---------------------------12-|--7-----------------------|
    |----------------------------------|------------------------7-|
    |----------------------------------|--------------------------|



    |------------8---------------|-----------6-------------|
    |------9/11-----9------------|------7/9----------------|
    |----9-------------9-7-6-7-9-|----7---------7----------|
    |--7-------------------------|--5----------------------|
    |----------------------------|-----------------------5-|
    |----------------------------|-------------------------|



    |-----------6-------------------|----------||
    |------7/9-----7----------------|----------||
    |----7------------7-5-4-5-7-----|----------||
    |--5------------------------7---|----------||
    |-----------------------------5-|----------||
    |-------------------------------|----------||


    1:37 --> Escalas e cromatismos:
    C||--------------------------------------|
    G||--------------------13-14-16-18-16-14-|
    D||-----------12-14-16-------------------|
    A||--12-14-16----------------------------|
    E||--------------------------------------|
    B||--------------------------------------|

    |-----------14-16-18-20-18-16-14-13-14-16-18-|
    |--13-16-18----------------------------------|
    |--------------------------------------------|
    |--------------------------------------------|
    |--------------------------------------------|
    |--------------------------------------------|

    |--20-18-16-14-13-14-16-18-20-18-16-14-13-14-16-18-|
    |--------------------------------------------------|
    |--------------------------------------------------|
    |--------------------------------------------------|
    |--------------------------------------------------|
    |--------------------------------------------------|

    |--20-18-16-14-13-14-16-18-20-18-16-14-13-14-16-18-|
    |--------------------------------------------------|
    |--------------------------------------------------|
    |--------------------------------------------------|
    |--------------------------------------------------|
    |--------------------------------------------------|

    |--20-18-16-14-16-13----13----------------|
    |--------------------14----14----14-------|
    |-----------------------------14----14-11-|
    |-----------------------------------------|
    |-----------------------------------------|
    |-----------------------------------------|

    |-------------------|----------|
    |-------------------|----------|
    |--14-11------------|----------|
    |--------12-11------|----------|
    |-------------------|----------|
    |-------------------|----------|

    |---------------------------------------------|
    |---------------------------------12-13-14-15-|
    |------------------12-13-14-15-16-------------|
    |---12-13-14-15-16----------------------------|
    |---------------------------------------------|
    |---------------------------------------------|



    |-----12-13-14-15-14-13-12-14-13-12-11-13-12-11-10-|
    |--16----------------------------------------------|
    |--------------------------------------------------|
    |--------------------------------------------------|
    |--------------------------------------------------|
    |--------------------------------------------------|

    |--12-11-10-9-------------------------------------|-----------|--13-----||
    |-------------13-12-11-10-------------------------|-----------|--14-----||
    |-------------------------14-13-12-11-------------|-------14--|---------||
    |-------------------------------------15-14-13-12-|-----------|---------||
    |-------------------------------------------------|-----------|---------||
    |-------------------------------------------------|-----------|---------||


    Vou continuar em outro post. ;-)

    maggie
    Veterana
    # mai/04
    · votar


    nukebass
    Usa o botão

    Tab, apaga a tablatura e escreve nele:

    e------------------------------------------------------
    B------------------------------------------------------
    G------------------------------------------------------
    D------------------------------------------------------
    A------------------------------------------------------
    E------------------------------------------------------


    nukebass
    Veterano
    # mai/04
    · votar


    maggie
    Hehehe... fui consertar o que já tava bom e acabei estragando ainda mais... mas já consertei denovo. ;-)

    Keldorn
    Veterano
    # mai/04
    · votar


    O que pega do Nukebass é A Song for Hope.

    nukebass
    Veterano
    # mai/04
    · votar


    Aqui vai a primeira parte de "Impressions":

    C||-----------20----17------------|---------15---17----15---------|
    
    G||-----------22----18------------|---------17---18----17---------|
    D||-------------------------------|---16--------------------------|
    A||---16--------------------------|-------------------------------|
    E||-------------------------------|-------------------------------|
    B||-------------------------------|-------------------------------|


    C||--------13---15---13---17--13--|---12---13---13----------------|
    G||--------15---17---15-----------|---13--------------------------|
    D||---15--------------------------|---16--------------------------|
    A||-------------------------------|---18--------------------------|
    E||-------------------------------|-------------------------------|
    B||-------------------------------|-------------------------------|


    C||--------------------15---------|-------------------------------|
    G||--------15--17--15------15-----|---13--15--13------11--13--11--|
    D||---11--------------------------|---16----------13--------------|
    A||-------------------------------|-------------------------------|
    E||-------------------------------|-------------------------------|
    B||-------------------------------|-------------------------------|


    C||-------------------10-----------------------------------|
    G||-------10--11--10------10\8--10---8-----6--8--6----\5---|
    D||---11--------------------------------8------------------|
    A||--------------------------------------------------------|
    E||--------------------------------------------------------|
    B||--------------------------------------------------------|


    C||-----------20------17----------|--15--17--15-------------------|
    G||-----------22------------------|--15---------------------------|
    D||------15-------------------16--|-------------------------------|
    A||--16---------------------------|--16---------------------------|
    E||-------------------------------|-------------------------------|
    B||-------------------------------|-------------------------------|


    C||-----------20---17-------------|-------15--17--15--------------|
    G||--18--20---18------------------|-------15----------------------|
    D||--16-------18------------------|-------16----------------------|
    A||--16---------------------------|-------------------------------|
    E||-----------13------------------|---14--------------------------|
    B||-------------------------------|-------------------------------|


    C||--------------22--20-----------|-------15--17--15--------------|
    G||------18--20-------------------|-------15----------------------|
    D||------18-----------------------|-------15----------------------|
    A||-------------------------------|---13--------------------------|
    E||--16---------------------------|-------------------------------|
    B||-------------------------------|-------------------------------|


    C||-------17----15-15-15-13-13-13-12-12-12-13---------------------|
    G||-------15----15-15-15-15-15-15-15-15-15-15-15------------------|
    D||-------------------------------------------16------------------|
    A||---------------------------------------------------------------|
    E||--11-----------------------------------------------------------|
    B||---------------------------------------------------------------|


    C||-------17----18-17-15-17-15-13-15-13-12-13---------------------|
    G||-------15----15-15-15-15-15-15-15-15-15-15-15------------------|
    D||-------------------------------------------16------------------|
    A||---------------------------------------------------------------|
    E||--11-----------------------------------------------------------|
    B||---------------------------------------------------------------|


    C||---------------12--------------|-------11-11-11-11-13-11-------|
    G||-------11--13------15----11----|-------13-13-13-13-13-13-------|
    D||-------------------16----------|-------------------------------|
    A||---11--------------------------|---12--------------------------|
    E||-------------------------------|-------------------------------|
    B||-------------------------------|-------------------------------|


    C||---------------13--------------|-------------------------------|
    G||-------11--13------15----11----|--------11-11-11-11-13-11------|
    D||-------11----------16----------|--------13-13-13-13-15-13------|
    A||---13--------------------------|---15--------------------------|
    E||-------------------------------|-------------------------------|
    B||-------------------------------|-------------------------------|


    C||---------------15---13---------|-------------------------------|
    G||-------11--13------------15----|------15-15-15-15-17-15-18--20-|
    D||---11--------------------------|------16-16-16-16-18-16-20-----|
    A||-------------------------------|--18---------------------------|
    E||-------------------------------|-------------------------------|
    B||-------------------------------|-------------------------------|


    C||---------20-----------20-------|--------20------------20-------|
    G||-------18-----------18---------|------18-----------18----------|
    D||-----18-----------18-----------|----18----------18-------------|
    A||---20-----------19-------------|--18---------15----------------|
    E||-------------------------------|-------------------------------|
    B||-------------------------------|-------------------------------|

    (3x)
    C||------------------13-----------------17----||
    G||o-----------10-13--------------13-17------o||
    D||---------11-----------------15-------------||
    A||------11-----------------15----------------||
    E||o---9-----------------13------------------o||
    B||-------------------------------------------||


    nukebass
    Veterano
    # mai/04
    · votar


    Esse é o comecinho do meu solo na "FCC Bass Band":

    ~~~~~~~
    C|-----------------------------|----------10----10-10/12--|
    G|--10(1/4)--10--10--8---------|----------10----10-10/12--|
    D|----------------------10-----|--10--12------------------|
    A|-----------------------------|--------------------------|
    E|-----------------------------|--------------------------|
    B|-----------------------------|--------------------------|


    C|--10/12--10------10-----------------------|
    G|-------------12------12--11--8/10--8------|
    D|--------------------------------------10--|
    A|------------------------------------------|
    E|------------------------------------------|
    B|------------------------------------------|

    ~~~
    C|-------------------------------------------|
    G|---------(*)------8--------------(*)-------|
    D|--8--10------(*)-----10---8--10------(*)---|
    A|-------------------------------------------|
    E|-------------------------------------------|
    B|-------------------------------------------|

    (1/4)
    C|---------------------------------|
    G|--10-------10-10-10-10--8--------|
    D|---------------------------10----|
    A|---------------------------------|
    E|---------------------------------|
    B|---------------------------------|

    ---> Chromatize or DIE!!! >:-D
    C|-----------------------------------------------13-14-15--|
    G|--------------------------------13-14-15-16-17-----------|
    D|-----------------13-14-15-16-17--------------------------|
    A|--13-14-15-16-17-----------------------------------------|
    E|---------------------------------------------------------|
    B|---------------------------------------------------------|


    C|--16-15-14-13-15-14-13-12-14-13-12-11-13-12-11-10--|
    G|---------------------------------------------------|
    D|---------------------------------------------------|
    A|---------------------------------------------------|
    E|---------------------------------------------------|
    B|---------------------------------------------------|

    C|---------------------------------------------------|
    G|--14-13-12-11-10-11-12-13-14-13-12-11-10-11-12-13--|
    D|---------------------------------------------------|
    A|---------------------------------------------------|
    E|---------------------------------------------------|
    B|---------------------------------------------------|


    O resto é improvisação... :-)

    PuNk Bass
    Veterano
    # mai/04
    · votar


    nukebass
    Aqui vai a primeira parte de "Impressions"
    Êba! Essa é a que eu mais queria ver.
    ;)

    nukebass
    Veterano
    # mai/04
    · votar


    Na minha Apostila também tem algumas coisas: http://www.nukebass.hpg.ig.com.br/Images/Apostila.pdf

    ;-)

    WormKrash
    Veterano
    # mai/04
    · votar


    nukebass

    cara, muito obrigado! valeu mesmo

    Guibass
    Veterano
    # mai/04
    · votar


    Desculpa a ignorância... mas como q faz pra tocar quando na tab tem uma nota em cima da outra em cordas diferentes, por exemplo:

    -------10---------------
    -------15---------------
    Eu tenho

    marcioazzarini
    Veterano
    # mai/04
    · votar


    Guibass

    Isso indica que vc tem q tocar as cordas simultâneamentes, como se fosse um acorde

    Guibass
    Veterano
    # mai/04
    · votar


    ddexa ver se eu entendi... é tipo dar uma puxada nas cordas? tipo o q eu escrevi antes eu usaria o polegar na 15 e o indicador na 10... pelo menos é o q eu gfaço em algumas músicas q tem isso, como no solo de refrão de bolero... tá certo então??
    desde já muito obrigado!

    PuNk Bass
    Veterano
    # mai/04
    · votar


    Guibass
    ddexa ver se eu entendi... é tipo dar uma puxada nas cordas? tipo o q eu escrevi antes eu usaria o polegar na 15 e o indicador na 10... p
    Isso!

    no solo de refrão de bolero...
    Essa música é muito boa! \o/

    maikonbass
    Veterano
    # mai/04
    · votar


    OND EU ACHO O midi DESSES SOLOS DO NUKE?

    nukebass
    Veterano
    # mai/04
    · votar


    maikonbass
    Deixa eu ver se eu advinho o que vc quer fazer:

    Vc quer os MIDI's para poder tocá-los em baixa velocidade, não é mesmo? Assim ficaria mais fácil de pegar. ;-)

    Minha sugestão:
    Se você ainda não usa o Winamp, vá no http://superdownloads.ubbi.com.br/download/i9262.html e baixe o Winamp 2.91.
    MAS ATENÇÃO! NÃO BAIXE ESSAS ÚLTIMAS VERSÕES!!! SÃO UM LIXO!!! BAIXE A 2.91!!!

    Instale o Winamp 2.91 normalmente...
    Agora baixe aqui o plug-in Pacemaker: http://sky.prohosting.com/oparviai/pacemaker/pacemaker.exe
    Instale esse plug-in do Winamp e pronto! É só ativá-lo nas opções do Winamp! Você pode baixar e aumentar a velocidade de qualquer mp3 sem alterar a tonalidade ou timbre da música. Além de poder também alterar a tonalidade sem alterar a velocidade. ;-)

    Abraços!

    ______________________
    Roberto William
    nukebass@hotmail.com

    Alguns solos caseiros:

    FCC BassJam(solo nuke)
    Tapping Town
    Impressions
    A New Beginning
    scythe!
    In The Name Of Bach
    Mach 7.9
    J.S.Bach Prelude in G
    J.S.Bach Prelude in C
    Three Views Of A Secret

    PuNk Bass
    Veterano
    # mai/04
    · votar


    nukebass
    Valeu pela explicação!
    ;)

    maikonbass
    Veterano
    # jul/04
    · votar


    NUKEBASS

    Baixei aquele pluing q vc disse q diminui ou aumenta a velocidade a hora q quiser de qualquer musica pelo winamp,mas nao sei fazer ele funcionar,me explique por favor.

      Enviar sua resposta para este assunto
              Tablatura   
      Responder tópico na versão original
       

      Tópicos relacionados a tabs do NukeBass??