Sobre a transcrição de Metropolis na Cover Baixo de agosto de 2004

    Autor Mensagem
    flea fan
    Veterano
    # dez/05


    Eu estava tocando essa música pela revista e cheguei em uma parte que a transcrição pareceu diferente, do compasso 167 ao 169 (por volta de 7:48). Para quem não tem essa edição, a tablatura está assim:

    C-----------------------------|--------------------------------
    G---12---11-9---11---9-7---11-|---9-----------12---11-------11-
    D-9----9------7----7-----7----|-7---10-12-9-9----9----12-10----
    A-----------------------------|--------------------------------
    E-----------------------------|--------------------------------
    B-----------------------------|--------------------------------

    C-----------------11---9---------|
    G----12-9-11---------7---11---11-|
    D-10---------12-9----------10----|
    A--------------------------------|
    E--------------------------------|
    B--------------------------------|


    E foi assim que eu tirei:
      C----------------------------------|--------------------------------
    
    G-------------------------------11-|---9-----------12---11-------14-
    D----14----12-10---12---10---------|-7---10-12-9-9----9----9-10-----
    A-10----10-------9----9----9-10----|--------------------------------
    E----------------------------------|--------------------------------
    B----------------------------------|--------------------------------


    C-----------------11---9------9-|
    G----12-9-11---------7---11-----|
    D-10---------12-9----------10---|
    A-------------------------------|
    E-------------------------------|
    B-------------------------------|


    Essa transcrição da revista na verdade parece a melodia do teclado, que é praticamente igual à do baixo desde o compasso 151 (por volta de 7:19), exceto nesse trecho que eu postei. Dêem uma ajuda aí e vejam qual fica mais parecida.

    Lucas Gatto
    Veterano
    # dez/05
    · votar


    a da cover baixo ta errada... o solo ta errado, a base dos solos de guitarra ta errada... tem uma por ae na net de guitar pro q ta certa, acho q no mysongbook tem! Entretanto essa parte ae ta certa eimm(na cover) a sua ta meio estranha

    flea fan
    Veterano
    # dez/05
    · votar


    Lucas Gatto

    É que me pareceu tão evidente que eu até achei esquisito, preste atenção se o baixo não se desprende da melodia do teclado nessa parte. Só se o que eu estou ouvindo não é o baixo então.

    Stank
    Veterano
    # dez/05
    · votar


    Quem fez essa transcrição?

    Ngm
    Veterano
    # dez/05
    · votar


    flea fan
    Eu também achei essa transcrição da cover muito estranha. A que você tirou parece mais certa, mas eu ainda faço um pouco diferente:

    ------|---------------------|---------------------|
    ------|--14------12---------|--12-----10----------|
    --10--|------10------14--9--|------9------12--12--|
    ------|---------------------|---------------------|

    ------------------------------|----------------------|
    --16------14------------------|--17------16----------|
    ------12------15--17--14--14--|------14------17--15--|
    ------------------------------|----------------------|

    ------------------------------|----------------------|------
    --19------17------------------|--21------19----------|--19--
    ------15------19--21--17--17--|------17------15--15--|------
    ------------------------------|----------------------|------

    A digitação tá diferente, mas as notas são quase as mesmas. A divisão de compasso que eu fiz também é diferente, cheia de 5/8 e 7/8.

    Se você puder postar, eu queria ver o resto da transcrição desse solo aí. Se você quiser, eu posso postar o resto do jeito que eu toco.

    Steve Harris eh o cara
    Veterano
    # dez/05
    · votar


    tem varias transcriçoes da coverbaixo q estao péssimas, a transcriçao de Wishing well do angra tah sem varias viradas, soh mostrando o "basico" da musica....

    flea fan
    Veterano
    # dez/05 · Editado por: flea fan
    · votar


    Ngm

    Ao resto eu não me atentei muito, toco mais ou menos igual à revista mesmo. Mas pelo menos você concorda que a da Cover parece errada aí.

    Steve Harris eh o cara

    Sim, Metropolis também só tem o básico em algumas partes.

    Midgard
    Veterano
    # dez/05
    · votar


    essa musica eh a q tem aqueles tappings muito lokos do japa?

    flea fan
    Veterano
    # dez/05
    · votar


    essa musica eh a q tem aqueles tappings muito lokos do japa?

    Essa mesma.

      Enviar sua resposta para este assunto
              Tablatura   
      Responder tópico na versão original
       

      Tópicos relacionados a Sobre a transcrição de Metropolis na Cover Baixo de agosto de 2004