metade de um - metade de outro...

Autor Mensagem
MatheusMX
Veterano
# mar/05 · Editado por: MatheusMX
· votar


.

danilo_bass
Veterano
# mar/05
· votar


Solo:
|--------------------------------------------------------------------- |
|---------------------------------------8~~-----------8-8------------- |
|------------7^rp5--7-(7)~~~--r7p5--7^-------r7p5--7^-----r7----5^\/\- |
|-7~~~~~~~~~---------------------------------------------------------- |
|--------------------------------------------------------------------- |
|--------------------------------------------------------------------- |

|--------------------------------------------------------------------- |
|-----------------------------------------13^(2 steps)--13^(1/4 step)-|
|-7/9-9/10--------------------------12h14----------------------------- |
|----------------------10h12-12/14------------------------------------ |
|-5/7--7/8--8h10-10/12------------------------------------------------ |
|--------------------------------------------------------------------- |

|-------------------------------------------------------------------|
|-------------------------------------------------------------------|
|-14~~~--12---------------------------------------------------------|
|-----------14-13h14p13p12-13p12-10-12p10---------10^---------------|
|------------------------------------------12p10------12p10-12-(12)-|
|-------------------------------------------------------------------|

|-----15-15-15-------------15-15-------------------------------------- ----|
|-15^----------r15p13--15^-------r15--13-12---------12/15-13-12-13---- ----|
|------------------------------------------------13-----------------14 ----|
|---------------------------------------------14---------------------- -15-|
|--------------------------------------------------------------------- ----|
|--------------------------------------------------------------------- ----|

|-13-----------------------------5------------------------------------ ----------|
|----13--15^--15~~~--r15p13--8^-----8-5--------x-x--8---------------5^ r^(5)r--5-|
|----------------------------------------r7p5--x-x--7^--(7)-----r7---- ----------|
|--------------------------------------------------------------------- ----------|
|--------------------------------------------------------------------- ----------|
|--------------------------------------------------------------------- ----------|

MatheusMX
Veterano
# mar/05
· votar


huaehuaehuhauhaeh

Toalhinha
Veterano
# mar/05
· votar


puts

Lord_Mackenzie
Veterano
# mar/05
· votar


aFFF

tncv
Veterano
# mar/05
· votar


Toalhinha
pq tu perguntou se eu to vivo?

MatheusMX
Veterano
# mar/05 · Editado por: MatheusMX
· votar


vou editar , tah mto grande , pronto

Lord_Mackenzie
Veterano
# mar/05
· votar


Índios

E||--3--------5----7----|---------0-----------|-----------5----7----|
B||--3------------------|--7------------------|--8------------------|
G||-----------5---------|--7---------7--------|--7--------5---------|
D||---------------------|------------7--------|---------------------|
A||---------------------|---------------------|---------------------|
E||---------------------|---------------------|---------------------|



---------0-----------|------------------------------|
--7------------------|---8-7-8--8-7-8--8-7-8--8-7-8-|
--7---------7--------|------------------------------|
------------7--------|------------------------------|
---------------------|------------------------------|
---------------------|------------------------------|



---5-3-5--5-3-5--5-3-5--5-3-5-|---7-5-7--7-5-7--7-5-7--7-5-7--|
------------------------------|-------------------------------|
------------------------------|-------------------------------|
------------------------------|-------------------------------|
------------------------------|-------------------------------|
------------------------------|-------------------------------|



---7-5-7--7-5-7--7-5-7--7-5-7--|---8-7-8--8-7-8--8-7-8--8-7-8--|
-------------------------------|-------------------------------|
-------------------------------|-------------------------------|
-------------------------------|-------------------------------|
-------------------------------|-------------------------------|
-------------------------------|-------------------------------|



---8-7-8--8-7-8--8-7-8--8-7-8--|---10-8-10--10-8-10--10-8-10--10-8-10- |
-------------------------------|-------------------------------------- |
-------------------------------|-------------------------------------- |
-------------------------------|-------------------------------------- |
-------------------------------|-------------------------------------- |
-------------------------------|-------------------------------------- |



---10-8-10--10-8-10--10-8-10--10-8-10--|------------------------|
---------------------------------------|--------8---10---8------|
---------------------------------------|----9---------------9---|
---------------------------------------|------------------------|
---------------------------------------|------------------------|
---------------------------------------|------------------------|



------------5---7--5---|---------2---3---2--0----|--0--3---7---8---7-- ----|
--------7--------------|--0--3-------------------|-------------------- 8---|
----7------------------|-------------------------|-------------9------ ----|
-----------------------|-------------------------|-------------------- ----|
-----------------------|-------------------------|-------------------- ----|
-----------------------|-------------------------|-------------------- ----|



---------3---5---3--0---|-----2---5---7---5------|---------2---3---2-- 0----|
-----5------------------|--3-----------------7---|-----3-------0------ -----|
--5--------------5------|-------------7----------|--4----------------- -----|
------------------------|------------------------|-------------------- -----|
------------------------|------------------------|-------------------- -----|
------------------------|------------------------|-------------------- -----|



--0--3---7---8---7-------|--------------------------|---------5---7--- 5------|
--------------------10---|----------8---10---8------|-----7-------7--- ---7---|
-----------------9-------|------9---------------9---|--7----------7--- 7------|
-------------------------|--10----------10----------|----------------- -------|
-------------------------|--------------------------|----------------- -------|
-------------------------|--------------------------|----------------- -------|



---------2---3---2--0---|--0--3---7---8---7------|-------------------- ----|
-----3-------0---0------|---------8---8------8---|--------8---10---8-- ----|
--4---------------------|-------------9---9------|----9--------------- 9---|
------------------------|------------------------|-------------------- ----|
------------------------|------------------------|-------------------- ----|
------------------------|------------------------|-------------------- ----|



------------5---7--5---|---------2---3---2--0----|--0--3---7---8---7-- ----|
--------7--------------|--0--3-------------------|-------------------- 8---|
----7------------------|-------------------------|-------------9------ ----|
-----------------------|-------------------------|-------------------- ----|
-----------------------|-------------------------|-------------------- ----|
-----------------------|-------------------------|-------------------- ----|



------------------------|------------5---7--5---|---------2---3---2--0 ----|
--------8---10---8------|--------7--------------|--0--3--------------- ----|
----9---------------9---|----7------------------|--------------------- ----|
------------------------|-----------------------|--------------------- ----|
------------------------|-----------------------|--------------------- ----|
------------------------|-----------------------|--------------------- ----|



--0--3---7---8---7------|------------------------|------------5---7--5 ---|
--------------------8---|--------8---10---8------|--------7----------- ---|
-------------9----------|----9---------------9---|----7--------------- ---|
------------------------|------------------------|-------------------- ---|
------------------------|------------------------|-------------------- ---|
------------------------|------------------------|-------------------- ---|



---------2---3---2--0----|--0--3---7---8---7------|--0---8----0------- -7-------|
--0--3-------------------|--------------------8---|--1------3----0-3-- ----0----|
-------------------------|-------------9----------|--3---0--5------6-- ----6--7-|
-------------------------|------------------------|------------------- ---------|
-------------------------|------------------------|------------------- ---------|
-------------------------|------------------------|------------------- ---------|



----0---5--0--------10--5-----|----7--10--7------0---10--------10-|
----------------3---------7---|--8----------8----7-------10-------|
--0----------5--6-----------7-|----------------7------------11----|
--7---------------------------|-----------------------------------|
------------------------------|-----------------------------------|
------------------------------|-----------------------------------|



--0-------12---------0-----0----------|-----------8-----------8----0-- --|
-----12-------12-----------12--12-----|-------8-----8----0-------8---- --|
-----------------12--12-----------12--|-----9----------9-------------- 7-|
--12-----------------12---------------|--10--------------10----------- --|
--------------------------------------|------------------------------- --|
--------------------------------------|------------------------------- --|



--5---10--5-------5---10-----------|----------10-----------5--10------ -----|
------------7---7---------10-------|-----12-------12-----3--------10-- -----|
--6-----------7--------------11----|--12-------------12--6------------ 11-9-|
------7-------------------------12-|---------------------------------- -----|
-----------------------------------|--------------12------------------ -----|
-----------------------------------|---------------------------------- -----|



-------12---------0----0---0-------|------0---0----0----------------|
--8--------12-----13---12----------|------8---8----8----0---8-------|
--11-----------12----------11--12--|--12--8---8--5-8--5-8---8-------|
------------------12---------------|--10----------------10--10--10--|
-----------------------13----------|--10--6-------------13--10------|
-----------------------------------|------3-------------------------|



--0--5---10------10------------|------------8----8-------------|
---------10----7--------10-----|--------------10----------10---|
--7--7---7---7--------------11-|-----10----------10------------|
--7--7------------------12-----|--10------------------10-------|
---------7---------------------|-------------------------------|
-------------------------------|-------------------------------|

Toalhinha
Veterano
# mar/05
· votar


tncv
pq eu t teclo no msn e vc nao responde

danilo_bass
Veterano
# mar/05
· votar


tncv
pq eu t teclo no msn e vc nao responde

(2)

Arthas_2
Veterano
# mar/05
· votar


reconheco que todos nós desvirtuamos fudidamente esse topico honesto

Lord_Mackenzie
Veterano
# mar/05
· votar


reconheco que todos nós desvirtuamos fudidamente esse topico honesto

Tem razão mas agora já era, ele já morreu

Lord_Mackenzie
Veterano
# mar/05
· votar


tncv
pq eu t teclo no msn e vc nao responde
(3)


MatheusMX
Veterano
# mar/05
· votar


down
down
down
down
downdown
downdow
downdo
downd
down
dow
do
d

Individuo
Veterano
# mar/05
· votar


a resposta é 0!

pedrunk
Veterano
# mar/05
· votar


Isso aí é uma pegadinha já peguei muita gente com isso qunado tinhas uns 9 anos hauha mas não vo conta como é vocês vão morrer com a dúvida de como é a brincadera, MISERÁVEIS.

Italo_NC
Veterano
# mar/05
· votar


é uma pizza metade de calabresa metade de mussarela!

SeEk AnD dEsTrOy
Veterano
# mar/05
· votar


os ideogramas japoneses saum assim

EduardoSlash
Veterano
# mar/05
· votar


Italo_NC
para mew......puta fome q eu to e vc me fala d pizza d calabreza...hauahuhauha

Jack PunkMetal
Veterano
# mar/05
· votar



e--------------24^(30)-28-30-----------------------------
B-------------23-------------42-50-65^(83)----90^^(99)---
G-----------16-----------------------------80------------
D---------12---------------------------------------------
A-------5------------------------------------------------
E---1-6--------------------------------------------------


                            |full bend hahaha|

e--99/24------------------------2^(12)---13^(82)/------1-----
B--------80/12-----------------------------------------1-----
G--------------65/1-3-10-------------------------------11----
D------------------------2-----------------------------12----
A-------------------------2----------------------------12----
E--------------------------5/0-------------------------1-----
|pestana|


Duvido alguém tocar isso aí!!!
HUAHAUHAUHAUHAUHAUHAUHUAHUAHUAH

Fear of the dark
Veterano
# mar/05
· votar


75%!

Enviar sua resposta para este assunto
        Tablatura   
Responder tópico na versão original
 

Tópicos relacionados a metade de um - metade de outro...