Fórum Cifra Club - maior fórum de m&uacite;sica do Brasil

Como Tocar o Solo da Pantera Cor de Rosa No Violão?

Autor Mensagem
César_violão
Veterano
# set/08


Como Tocar o Solo da Pantera Cor de Rosa No Violão?


Procurei Ví Videos Mais Ainda Não Encontrei Um Lugar Onde Ensine as Notas e Como Tocar a Musica Passo-a-passo!!!


Alguém Me Ensina a Tocar o Solo da Pantera Cor de Rosa?

Brown
Veterano
# set/08
· votar


César_violão
Pô, amigão. Basta procurar um pouquinho, né?

Aqui mesmo no Cifra Club tem essa tab:
http://www.cifraclub.com.br/cifras/temas-de-tv/pantera-cor-de-rosa-h mjz.html

supermulti
Revelação e Virtuose
Prêmio FCC violão 2008
# set/08 · Editado por: supermulti
· votar


César_violão

Como Tocar o Solo da Pantera Cor de Rosa No Violão?

É mais ou menos assim (o tom é fá menor):


e------------------------------------------------------
B------------------------------------------------------
G----------------------6-5-----5-4~--------------------
D----------5-6-----5-6--------------9-8-6--------------
A--5-6-7-8-----7-8---------7-8------------6-8~\-5-6-7-8
E------------------------------------------------------




e------------------------------------------------------
B----------------------6-5~---------6------------------
G--------------6-5--------------------8-5--------------
D--5-6-----5-6----------------------------8-6---9-9-9-9
A------7-8---------7-8------5-6-7-8-----------8--------
E------------------------------------------------------




e-----------------------------------------------------||
B-----------------------------------------------------||
G-----------------------------------------------------||
D---6-------------------------------------------------||
A-----8-6-8~-8~---------------------------------------||
E-----------------------------------------------------||


Obs.: até a nota de número 14, mantenha-se na 5ª posição (dedo 1, posicionado a partir da casa 5); nas notas 15 e 16, mude para a 4ª posição (dedo 1, posicionado na casa 4); da nota 17 a 21, mude para a 6ª posição (dedo 1, posicionado na casa 6); e assim por diante...

rodrigo_sant
Veterano
# set/08
· votar


Essa música ta em primeiro no top cifras http://www.cifraclub.com.br/cifras/henry-mancini/pantera-cor-de-rosa -hphjp.html manda vê essa música é peeesaadonaaaaaa uhahuahua

supermulti
Revelação e Virtuose
Prêmio FCC violão 2008
# set/08
· votar


rodrigo_sant

Essa música ta em primeiro no top cifras

Eu vi essa versão do top cifras...

Mas tenta tirar essa que eu escrevi prá você ver, seguindo a digitação que eu sugeri.

Abs.

Enviar sua resposta para este assunto
        Tablatura   
 

Tópicos relacionados a Como Tocar o Solo da Pantera Cor de Rosa No Violão?

290.152 tópicos 7.569.086 posts
Fórum Cifra Club © 2001-2014 Studio Sol Comunicação Digital