Fórum Cifra Club - maior fórum de m&uacite;sica do Brasil

Vamos contribuir com exercicios de Arpejos!!!!!!

Autor Mensagem
joaopaulo_df
Veterano
# mar/05


Hei pessoal vamos contribuir com exercicios de arpejo ou mesmo com arpejos para todos ficarem treinando....... Se cada um contribuir com pelo menos um vamos vamos lotar esse topico....
valew

Aí vai o meu:

Gm

|----5-2---------3-7---------|
|-------3-------5-------------|
|--------2-----4--------------|
|---------4---5---------------|
|----------5-7----------------|
|------------------------------|

Cae
Veterano
# mar/05
· votar



e-----------3-------8-12-15-12------------------------15-20-
B---------5-------8------------13-------------------17------
G-------5-----5-9-----------------12-------------17---------
D-----5------------------------------14-------17------------
A-3-7-----------------------------------15-19---------------
E-----------------------------------------------------------


Presuntobr
Veterano
# mar/05
· votar


Como assim exercicio de arpejo? q objetivo issu tem?

Deji
Veterano
# mar/05
· votar


Cae

Faltou o "em C"

advance2
Veterano
# mar/05
· votar


LEGAL, estudo guitarra todas as noites treinando e esse tópico eh de grande valia! Vlw

postarei alguns mais tarde. Estou no trabalho.

joaopaulo_df
Veterano
# mar/05
· votar


Presuntobr

Cara o seguinte coloquei exercicio pelo fato de muita gente ter em casa metodos com exercicio se estiverem afim de passar até pra quem não tem nenhum metodo tambem estudar!!!!

O objetivo e simples e vc conhecer mais arpejos que os que vc já saber e consequentemente melhorar como guitarrista e contribuindo vc vai ajudar a quem ainda não saber!!!! Conseguiu entender?????

joaopaulo_df
Veterano
# mar/05
· votar


Mais um aí pessoal:
G

|----------------3---7---3---------------|
|--------------3-----------3-------------|
|------------4---------------4-----------|
|----------5-------------------5---------|
|--------5-----------------------5-------|
|---3--7---------------------------7--3--|

Cae
Veterano
# mar/05
· votar


Em Am


e-------------5-8-12-8------------------------12-17-------
B-----------5----------10------------------13-------------
G---------5---------------9-------------14----------------
D-------7-------------------10-------14-------------------
A-----7------------------------12-15----------------------
E-5-8-----------------------------------------------------


Cae
Veterano
# mar/05
· votar


Em Bm



e-------------10-14-19-14--------------------------------
B----------12------------15--------------------------------
G-------11------------------16-----------------------------
D----12------------------------16--------------------------
A-14------------------------------17-14----------------------
E------------------------------------------------------


Cae
Veterano
# mar/05
· votar


Trecho da Go off do Cacophony. Provavelmente em G


e-------------------15-19-17-14------------------------------
B----------------15-------------15---------------------------
G-------------16-------------------14------------------------
D----------17-------------------------16-------------------14
A----14-17-------------------------------17-------------14---
E-15----------------------------------------17-14-12-15------



e-------12-15-14-10---------------------------------8-12-10-7
B----12------------12-----------------------------8----------
G-12------------------11------------------------9------------
D------------------------12------------------10--------------
A---------------------------14------------10-----------------
E------------------------------14-10-8-12--------------------



e-----------------------------8-12-14-10--------------------
B-8-------------------------8-----------10------------------
G--7----------------------9----------------11---------------
D----9-----------------10---------------------12------------
A------10-----------10---------------------------12---------
E---------10-7-8-12---------------------------------12-14---


Cae
Veterano
# mar/05
· votar


Merda!!! Alguem ajeita aí

advance2
Veterano
# mar/05
· votar


bom, ae jah alguem podia fazer um video com os exemplos pra ajudar

marcio_zav
Veterano
# mar/05 · Editado por: marcio_zav
· votar


Esse eh pra treinar o sweep:

E||----------2-5-6-3-----------------2-5-4-1---------||
B||--------3---------4-------------3---------2-------||
G||------2-------------3---------2-------------1-----||
D||----4-----------------5-----4-----------------3---||
A||--5---------------------6-5---------------------4-||
E||--------------------------------------------------||

Bem simples

marcio_zav
Veterano
# mar/05
· votar


A7

E||------------------5---------------||
B||--------------5-8---8-5-----------||
G||------------6-----------6---------||
D||--------5-7---------------7-5-----||
A||------7-----------------------7---||
E||--5-9---------------------------9-||


LeandroP
Moderador
# mar/05
· votar


joaopaulo_df

Tem certeza que aquele primeiro arpejo que você postou era de Gm mesmo?

Me pareceu mais um arpejo de D e Em

marcio_zav
Veterano
# mar/05
· votar


LeandroPanucci
Tb acho.....hehe

LeandroP
Moderador
# mar/05
· votar


marcio_zav

Eu uso bastante esses:



e------------10------------|----------7----------------
B----------8----8----------|--------5---5--------------
G-------11--------11-------|------7-------7------------
D-----9--------------9-----|----5-----------5----------
A--10------------------10--|--7---------------7--------
E--------------------------|---------------------------
G7M(9) Em7(9) ou G6



Gosto da sonoridade destes arpejos... são matadores!

marcio_zav
Veterano
# mar/05
· votar


LeandroPanucci
Mto bom mesmo, principalmente o 1o.

Paul Miander
Veterano
# mar/05
· votar


eu tenho mta dificuldade em saber qdo palhetar e fazer ligado ou não!
alguém pode me falar?
no sweep é sempre bom palhetar só uma vez né?
tipo tem um ae q tem 4 notas no mizin!
seria 2 com palhetada pra baixo ( palheta a primeira e liga a segunda ) e 2 pra cima ( primeira palhetada e segunda ligado ) ??
o foda é q se vc toca duas notas em uma palhetada vc teria q atrasar a palhetada... certo?
ou vc faz tudo em colcheias, aí as q tem duas vc faz em semi colcheias!?
seria isso?

Paul Miander
Veterano
# mar/05
· votar


valeu pelas respostas :P

mas ou panucci! mto loko esses arpeggios! dá pra fazer uma música com eles :P

Cover_Malmsteen
Veterano
# mar/06 · Editado por: Cover_Malmsteen
· votar


arpejo em la menor pôr todo o braço
começar de vagar, e depois de muito treino tocar 7 notas por tempo

e-------------5-8-5-------5-12-8--------------------8-12-17
B-----------5-------5---5--------10--------------10--------
G---------5-----------5-------------9----------9-----------
D-------7-----------------------------10----10-------------
A-----7----------------------------------12---------------
E-5-8----------------------------------------------------

[T]
e-12----------12-17-12----------------------------------
B----13----13----------13---------------------------------
G-------14----------------14------------------------------
D----------------------------14--------------------------
A-------------------------------15-12----------------------
E------------------------------------------------------


Cover_Malmsteen
Veterano
# mar/06 · Editado por: Cover_Malmsteen
· votar


arpejo em mi diminuto pôr todo braço
começar de vagar e depois de muito treino tocar em sextina

e-4-1-------1-7-4-------4-10-7--------7-13-10----------10-
B-----3---3-------6---6--------9----9---------12----12----
G-------4-----------7------------10--------------13-------
D---------------------------------------------------------
A---------------------------------------------------------
E---------------------------------------------------------



e-10-7--------7-7-4-------4-4-1-------1-5--------------
B------9----9-------6---6-------3---3------------------
G--------10-----------7-----------4--------------------
D------------------------------------------------------
A------------------------------------------------------
E------------------------------------------------------


Blue Jazz
Veterano
# mar/06
· votar


Alguém já tentou pegar um livro de arpejos para violão clássico e estudá-lo na guitarra? Vale a pena!!!

gu
Veterano
# mar/06
· votar


nice topico

U1000D
Veterano
# mar/06
· votar


nao eh igual estudar os acordes?

Cover_Malmsteen
Veterano
# mar/06
· votar


U1000D
e quase isso só que vc toca uma nota por vez

rafaman
Veterano
# mar/06 · Editado por: rafaman
· votar


Esse é o arpeggio que mais uso, tem uns tappings que deixam a impressão q é muito mais virtuoso do q parece! :P. Em Am!

                  T                T 

e---------8-10-12-15-12-10-8-10-12-17-12-10-8-----------
B-------10------------------------------------10--------
G-----9------------------------------------------8------
D---10---------------------------------------------10---
A-12-------------------------------------------------12-
E-------------------------------------------------------


hilariojuninho
Veterano
# jun/09
· votar



e------------------------------------------------------
B------------------------------------------------------
G------------------------------------------------------
D-----------2-3--2----------------------------------------
A-----2---5--------5--2------------------------------------
E--3----------------------------------------------------



pra iniciantes

ronaldo da fiel
Veterano
# jun/09
· votar


hilariojuninho
Para que upar isso?

Rough
Veterano
# jun/09
· votar


ronaldo da fiel

Ele upou pra postar algo útil, e tu ainda reclama?
tsc tsc..

Enviar sua resposta para este assunto
        Tablatura   
 

Tópicos relacionados a Vamos contribuir com exercicios de Arpejos!!!!!!

288.613 tópicos 7.533.775 posts
Fórum Cifra Club © 2001-2014 Studio Sol Comunicação Digital