Notificações Amigos pendentes

      Fórum Cifra Club - maior fórum de m&uacite;sica do Brasil

      Escala Pentatonica

      Autor Mensagem
      Patryk Rose
      # set/02


      Alguem pode mi passa si possivel todas as notas da escala pentatonica?

      tipo, tah certo a escala pentatonica normal:

      -8-5-------------------------
      -----8-5-------------------- -
      ---------7-5-----------------
      -------------7-5-------------
      ----- ------------7-6-5-------
      -----------------------8-5---

      alguem pode ve isso ai pra mim?

      flw brigadao!

      GuitarPlayer
      # set/02


      Penta la menor

      e-------------------------5-8
      b---------------------5-8----
      g----------------5-7---------
      d-----------5-7--------------
      a-----5 -6-7------------------
      E-5-8------------------------

      AldThales
      # set/02


      Penta Blues C (Dó Maior)
      C-D-Eb-E-G-A-C
      A Blue note e a nota Eb

      e|-8-5------------------------|
      B|-----8-5--------------------|
      G|---------8-7-5--------------|
      D|--------------7-5-----------|
      A|------------------7-6-5-----|
      E|------------------------8-5-|


      Se quiser em outras tonalidades é só usar o esquema:
      (1 tom, ½ Tom, ½ Tom, 1 e ½ Tom, 1 Tom, 1 e ½ Tom)
      Falow !!!!

      Patryk
      # set/02


      vlw brigadaum!
      alguem tem mais escalas pentatonicas?

      vlwww!

      lucas
      # set/02


      E|-----6-3--------------------------------------|
      B|--------5-3-----------------------------------|
      G|-----------5-3--------------------------------|
      D|--------------5-3-----------------------------|
      A|-----------------6-3--------------------------|
      E|--------------------6-3-----------------------|
      Essa é a penta de sol maior
      Falow!

      okazy
      Veterano
      # jan/06
      · votar


      os 5 modelos da pentatonica...
      aí vai... penta de Gm



      |----------------3-6|
      |-------------3-6---|
      |----------3-5------|
      |-------3-5---------|
      |----3-5------------|
      |-3-6---------------|

      |----------------6-8|
      |-------------6-8---|
      |----------5-7------|
      |-------5-8---------|
      |----5-8------------|
      |-6-8---------------|

      |---------------------8-10|
      |-----------------8-11----|
      |-------------7-10--------|
      |---------8-10------------|
      |-----8-10----------------|
      |-8-10--------------------|

      |--------------------------10-13|
      |---------------------11-13-----|
      |----------------10-12----------|
      |-----------10-12---------------|
      |------10-13--------------------|
      |-10-13-------------------------|

      |--------------------------13-15|
      |---------------------13-15-----|
      |----------------12-15----------|
      |-----------12-15---------------|
      |------13-15--------------------|
      |-13-15-------------------------|


      ai carinha

      okazy
      Veterano
      # jan/06
      · votar


      Pentatônica 1, Inicia em DÓ:

      |------------------------------8-10-|
      |-------------------------8-10------|
      |-------------------7-8-9-----------|
      |--------------7-10-----------------|
      |---------7-10----------------------|
      |-8-10-11---------------------------|

      |-----------------------------------------DÓ-RÉ-|
      |----------------------------------SOL-LÁ-------|
      |------------------------RÉ-RÉ#-MI--------------|
      |------------------LÁ-DÓ------------------------|
      |-----------MI-SOL------------------------------|
      |-DÓ-RÉ-RÉ#-------------------------------------|

      |---------------------------------1-RÉ-|
      |----------------------------5-LÁ------|
      |--------------------RÉ-BN-3-----------|
      |---------------LÁ-1-------------------|
      |---------3-SOL------------------------|
      |-1-RÉ-BN------------------------------|

      Pentatônica 2, inicia em RÉ:

      |------------------------------------10-11-12-|
      |------------------------------10-13----------|
      |-------------------------9-12----------------|
      |----------------10-12-13---------------------|
      |----------10-12------------------------------|
      |-10-11-12------------------------------------|

      |-----------------------------------------RÉ-RÉ#-MI-|
      |-----------------------------------LÁ-DÓ-----------|
      |----------------------------MI-SOL-----------------|
      |------------------DÓ-RÉ-RÉ#------------------------|
      |-----------SOL-LÁ----------------------------------|
      |-RÉ-RÉ#-MI-----------------------------------------|

      |-------------------------------RÉ-BN-3-|
      |--------------------------LÁ-1---------|
      |----------------------3-5--------------|
      |--------------1-RÉ-BN------------------|
      |---------5-LÁ--------------------------|
      |-RÉ-BN-3-------------------------------|

      Pentatônica 3, inicia em MI:

      |-------------------------------------12-15-|
      |----------------------------13-15-16-------|
      |----------------------12-14----------------|
      |-------------12-13-14----------------------|
      |-------12-15-------------------------------|
      |-12-15-------------------------------------|

      |-----------------------------------------MI-SOL-|
      |-------------------------------DÓ-RÉ-RÉ#--------|
      |------------------------SOL-LÁ------------------|
      |--------------RÉ-RÉ#-MI-------------------------|
      |--------LÁ-DÓ-----------------------------------|
      |-MI-SOL-----------------------------------------|

      |-------------------------------3-5-|
      |-----------------------1-RÉ-BN-----|
      |------------------5-LÁ-------------|
      |----------RÉ-BN-3------------------|
      |-----LÁ-1--------------------------|
      |-3-5-------------------------------|

      Pentatônica 5, inicia em SOL:

      |-------------------------3-5-|
      |-------------------3-4-5-----|
      |---------------2-5-----------|
      |-----------2-5---------------|
      |-----3-5-6-------------------|
      |-3-5-------------------------|

      |-----------------------------------------SOL-LÁ-|
      |-------------------------------RÉ-RÉ#-MI--------|
      |-------------------------LÁ-DÓ------------------|
      |------------------MI-SOL------------------------|
      |--------DÓ-RÉ-RÉ#-------------------------------|
      |-SOL-LÁ-----------------------------------------|

      |-------------------------------5-LÁ-|
      |-----------------------RÉ-BN-3------|
      |------------------LÁ-1--------------|
      |--------------3-5-------------------|
      |------1-RÉ-BN-----------------------|
      |-5-LÁ-------------------------------|

      Pentatônica 6, inicia em LÁ:

      |-------------------------5-8-|
      |---------------------5-8-----|
      |---------------5-7-8---------|
      |-----------5-7---------------|
      |-----5-6-7-------------------|
      |-5-8-------------------------|

      |-----------------------------------------LA-DÓ-|
      |----------------------------------MI-SOL-------|
      |------------------------DÓ-RÉ-RÉ#--------------|
      |-----------------SOL-LA------------------------|
      |-------RÉ-RÉ#-MI-------------------------------|
      |-LÁ-DÓ-----------------------------------------|

      |-------------------------------LÁ-1-|
      |---------------------------3-5------|
      |-------------------1-RÉ-BN----------|
      |--------------5-LÁ------------------|
      |------RÉ-BN-3-----------------------|
      |-LÁ-1-------------------------------|

      Brunorocker
      Veterano
      # jan/06
      · votar


      po, ressussitaram o topico morto, mas valeu ae, isso ´bom!

      okazy
      Veterano
      # jan/06
      · votar


      Brunorocker
      ai vamo po ai vamo ajuda o mindingo hehehe
      nao vamo chuta o mindingo
      huahuahua

      okazy
      Veterano
      # jan/06
      · votar


      eu tenho esperansa que ese topico vai pra frente
      me ajudem
      ehehehehe brincadera

      ateobaldo
      Veterano
      # jan/06
      · votar


      Ae já passaram a Penta Blues maior
      Agora passem a menor por favor

      okazy
      Veterano
      # jan/06
      · votar


      vishi cara os cara ja forum tudo imbora e daxaru nois
      huahuahua

      okazy
      Veterano
      # jan/06
      · votar


      eu axo que é isu

      ------------------7|8------------------|---
      B--------------8--|--8----------------|---
      G------------9----|----9--------------|---
      D-----5-9-10----|------10-9-5-----|---
      A---7-------------|----------------7--|---
      E-8---------------|------------------7|8--


      e------------------------|------------------------|---
      B--------------------12|13---------------------|---
      G-----------------12---|---12------------------|---
      D---------9-10-14----|------14-10-9--------|---
      A------10--------------|----------------10-----|---
      E-8-12----------------|-------------------12-7|8--


      e------------------|3-7-8-3------|---------
      B---------------5-|--------5------|---------
      G-----------4-5--|----------5-4--|---------
      D---------5-------|--------------5|---------
      A---2-3-7--------|----------------|7-3-2----
      E-3--------------|-----------------|------3--

      nandosantos
      Veterano
      # abr/11
      · votar


      Pessoal, desculpa estar ressussitando o tópico, mas é que estava pesquisando sobre pentas e me pintou algumas dúvidas, alguém poderia me ajudar?

      Bom, logo mais acima eu lí que o okazy postou que existem 5 tipos de penta, essa que ele postou está na tonalidade de Gm, gostaria de saber se por exemplo, a música está na tonalidade de Am, aí eu uso a penta de Am, certo?

      O desenho será o mesmo? [claro, sei que eu terei q ir para a tonalidade de A no instrumento], e esses 5 desenhos que ele postou, no caso são para todas as tonalidades e são apenas esses 5 desenhos que existem de pentatonicas menores ou existem outros?

      E caso eu for fazer a penta na corda de baixo, na A, o desenho vai mudar ou eu posso usar o mesmo [ou um dos 5 modelos], caso eu vá partir da nota A na quinta corda?

      Não querendo abusar, mas já abusando, esses são desenhos de pentas menores, no caso das maiores, diminutas e sustenidos, muda totalmente? No caso seria 5 modelos de desenhos para modos menores,maiores,diminuto,sustenidos, ou existem inúmeros desenhos?

      Gosto muito de frases de country e pelo que pesquisei no fórum, usa-se muito as pentas para improvisar e fazer aqueles licks lindos, com bends, slides, etc, se alguém tiver algum site, músicas, sugestões para que eu possa aprender algumas frases, eu agradeço.

      Grato pela atenção!

      Educassiano
      Veterano
      # abr/11
      · votar


      nandosantos

      ô parceiro, nao sou nenhum Tony da Gatorra, mas vo tentar explicar oq sei, se eu falar besteira alguem me corrige mesmo depois...

      gostaria de saber se por exemplo, a música está na tonalidade de Am, aí eu uso a penta de Am, certo?

      Certo. Curto e grosso seria isso, você faz um solo no tom da escala e ela "soa suave" Mas veja que se você tem um Riff com 3 power chords por exemplo, você pode usar mais de uma pentatônica diferente para solar em cima dele, para "soar bem", coloco em aspas porque isso é relativo, a ideia é deixar a criatividade fluir e nao se preocupar muito com tons e notas e escalas, sabe-se la o que pode ser criado, entende?

      E caso eu for fazer a penta na corda de baixo, na A, o desenho vai mudar ou eu posso usar o mesmo [ou um dos 5 modelos], caso eu vá partir da nota A na quinta corda?

      Procure assimilar a idéia de que o braço da guitarra tem notas, então você só tem que ver quais as notas que estão na pentatônica a ser usada e então acabamos nesses "desenhos", ou seja eles são meros acasos. Uma boa idéia seria cirar seus próprios desenhos, ou melhor ainda buscar pelo ouvido e através de "trascrição de solos" alguns licks de grandes guitarristas de blues, blues rock, rockabilly.. etc... Lembre-se: Se você pensar nos seus improvisos e solos com caixas isoladas de posições e desenhos na guitarra, você vai ter solos que sâo caixas e desenhos de guitarra, aeuhaehuae, nada inspirador.

      No caso seria 5 modelos de desenhos para modos menores,maiores,diminuto,sustenidos, ou existem inúmeros desenhos?

      Veja: Os Modelos das Maiores e Menores sao IDENTICOS, acrescentar outras notas específicas a esses desenhos, lógico que muda eles, a blue note é um bom exeplo.

      O country é um bom rítmo para transcrever solos e buscar licks, se você gosta do som, vá a luta, é um prato chieo, busque influências, e quando ver vai estar criando suas próprias músicas e solos.

      maspn
      Veterano
      # abr/11
      · votar


      a música é engraçada nessas partes,
      a teoria diz que voce tem que decorar, mas a prática diz que decorar nao signifca que vai usar...

      já decorei algumas, mas só uso elas no subconciente mesmo...

      renatocaster
      Moderador
      # abr/11
      · votar


      nandosantos

      Vc também pode usar a pentatonica da 'relativa menor' de um tom maior qualquer, e vice-versa. Neste caso, os campos harmonicos se equivalem. Exemplos:

      Na tonalidade de C, vc pode usar a escala de Am;
      Na tonalidade de D, vc pode usar a escala de Bm;
      Na tonalidade de E, vc pode usar a escala de C#m;
      Na tonalidade de F, vc pode usar a escala de Dm;
      Na tonalidade de G, vc pode usar a escala de Em;
      Na tonalidade de A, vc pode usar a escala de F#m;
      Na tonalidade de B, vc pode usar a escala de G#m;

      E isso vale pra qualquer escala: escala menor natural, penta m7, penta blues, penta m6, etc.

      Lembrando que o tom relativo menor é composto a partir da sexta nota de uma escala musical qualquer. Dentro dos modos gregos, é classificado como Eólio.

      Marcus_guitarra
      Veterano
      # abr/11
      · votar


      Vc também pode usar a pentatonica da 'relativa menor' de um tom maior qualquer, e vice-versa. Neste caso, os campos harmonicos se equivalem. Exemplos:

      Coreto, mas vc pode tb usar os 3º graus que dar muito certo também, porque usa escalas menores em graus menores dar um orimo efeito. e nao usar so desenhos de penta tonica por criar tamb desenho invertidos como exemplo: pegar tres notas de cada desenho e ir passando por cada desenho das pentas tb munda muito o efeito de sonoridade. eu uso muito e dar muito certo!
      ate mais espero que tenha ajudado vcs um pouco!

      nandosantos
      Veterano
      # abr/11
      · votar


      Pô, muito obrigado a todos, valeu mesmo, ajudaram e como.

      Sim, eu vou procurar pesquisar mais sobre issso, sobre licks de country que é um estilo que gosto muito, e sobre os desenhos, pode deixar que eu não serei daqueles que na hora de fazer um solo, tocará da primeira a última nota da escala, subindo e descendo a escala completa, hehehe. A idéia era mesmo saber se eram apenas 5 desenhos de cada tom, e outra maneira, além de "decorar" pelos desenhos, é eu saber as notas da penta de cada acorda, assim eu sei quais eu devo tocar para não sair da tonalidade, pq o q adianta eu tocar a penta com o desenho e não saber o que eu to tocando....

      Educassiano

      gostaria de saber se por exemplo, a música está na tonalidade de Am, aí eu uso a penta de Am, certo?

      Certo. Curto e grosso seria isso, você faz um solo no tom da escala e ela "soa suave" Mas veja que se você tem um Riff com 3 power chords por exemplo, você pode usar mais de uma pentatônica diferente para solar em cima dele, para "soar bem", coloco em aspas porque isso é relativo, a ideia é deixar a criatividade fluir e nao se preocupar muito com tons e notas e escalas, sabe-se la o que pode ser criado, entende?


      No caso, por exemplo se a pessoa toca os power chords de fá, sol, lá, eu posso usar as pentas nos tons dos acordes que foram tocados? Não é regra eu ter que usar as 3, no caso o que vc disse, seria para dar uma enriquecida no meu solo, entendi certo?

      Mais uma vez, muito obrigado a todos pela ajuda.

      renatocaster
      Moderador
      # abr/11
      · votar


      Marcus_guitarra

      criar tamb desenho invertidos como exemplo: pegar tres notas de cada desenho e ir passando por cada desenho das pentas tb munda muito o efeito de sonoridade. eu uso muito e dar muito certo!

      com certeza! costumo fazer algo parecido...Tocando de forma descendente, nas 3 primeiras cordas toco as notas da escala maior e no meio do caminho, nas 3 cordas restantes toco as notas da escala menor, ou penta-blues...E volta ao contrário na ascendente.

      E também faço inversão de shapes, tipo se nas 3 primeiras cordas eu toco as notas que estão no shape 1 da escala maior, nas 3 ultimas cordas eu toco no shape 3, por exemplo, da escala menor.

      Dá pra mesclar bastante coisa, e essa é uma saída legal pra vc não ficar viciado apenas nos desenhos padrão.

      Simple_Guitar
      Veterano
      # abr/11
      · votar


      Nao existem regras ha serem seguidas a risca...
      vc pode usar as escala equivalentes, Maior/Menor...pode usar tbm escala menor em acorde maior ou vice e versa...

      exemplo:
      Acorde esta em E, vc Pode Usar Perfeitamente a penta de Em, nao ha problemas kra...nao ha regra, o que importa e o som tirado, o que importa e o q o seu ouvido diz a vc...

      abç...

      nandosantos
      Veterano
      # abr/11 · Editado por: nandosantos
      · votar


      renatocaster

      Obrigado pelas dicas..

      Simple_Guitar

      Sim, é verdade, concordo com vc.

      Não sabia que se está em uma tonalidade maior eu poderia usar uma escala menor e vice-versa. Valeu pelo toque.

      Quero treinar uns fraseados pra tirar um country, encontrei esse site usando a busca, parece ser bacana, tem diversos vídeos, tabs,etc.

      http://countryguitar.com/home.htm

      suny12
      Veterano
      # abr/11
      · votar


      Na tonalidade de C vc pode usar as pentatonicas de C, Dm, Em, F, G, Am.
      Na tonalidade de D vc pode usar as pentatonicas de D, Em, F#m, G, A, Bm.
      Na tonalidade de E vc pode usar as pentatonicas de E, F#m, G#m, A, B, C#m.
      Na tonalidade de F vc pode usar as pentatonicas de F, Gm, Am, Bb, C, Dm.
      Na tonalidade de G vc pode usar as pentatonicas de G, Am, Bm, C, D, Em.
      Na tonalidade de A vc pode usar as pentatonicas de A, Bm, C#m, D, E, F#m
      Na tonalidade de B vc pode usar as pentatonicas de B, C#m, D#m E, F#, G#m.

      Simple_Guitar
      Veterano
      # abr/11
      · votar


      renatocaster

      Obrigado pelas dicas..


      Opa brother km ctza da pra usar maio km menos e menor km maior, mas cuidado so pra nao exagerara muito rs...como sempre digo tudo vai pelo som, w]e nesse lance de country q vc falo assim como blues, rock e até heavy e muito usada esse lance...

      vo da uma olhada la nosite q vc indico abç...

      Simple_Guitar
      Veterano
      # abr/11
      · votar


      Na tonalidade de C vc pode usar as pentatonicas de C, Dm, Em, F, G, Am.
      Na tonalidade de D vc pode usar as pentatonicas de D, Em, F#m, G, A, Bm. etc...

      estas sao escalas que podem ser tocadas sim, estas notas pertencem ao campo harmonico da tonalidade q c esta tocando...tem q ser tocadas em cima de seus repectivos acordes, e preciso um pouco mais de estudo...rs...mais e facilimo...basta saber decor o campo harmonico do tom.

      nandosantos
      Veterano
      # abr/11
      · votar


      Tá certo, entendi, tenho aqui anotado o campo harmonico menor, agora falta decorar hehe.

      Valeu, mais uma vez.

      bragaia2011
      Veterano
      # jun/11
      · votar


      Pessoal, me digam uma coisa, a pentatonica é a mesma digitação em qualquer tom? Vamos supor, olhem essa imagem em Dm,

      http://images.orkut.com/orkut/photos/PQAAAC2P1koTHrJPEdj2EGuDHUzyMgmef dLjxgkKL0pbgkcQHm_CRp2bG3iqCjXWBWHj2axJ3IVYwtsR8tIJIImq-akAm1T1UNP8lcT LLryywbydXekkVd_dPNil.jpg

      http://images.orkut.com/orkut/photos/PQAAALy77zW9fG7dENBx_XV-EUWICxA3g hDSvOQjGpAVBTGp0vfjV-uuFxKOpbxCmpoPaZEPdYQy5db8YeyZSL3vwBYAm1T1UH2iV2N G3_zZcoHJT59DucsAQoor.jpg

      então, se for em Am por exemplo, vai ser as mesmas digitações, só vão mudar as tônicas?

      bragaia2011
      Veterano
      # jun/11
      · votar


      http://images.orkut.com/orkut/photos/PQAAAC2P1koTHrJPEdj2EGuDHUzyMgmef dLjxgkKL0pbgkcQHm_CRp2bG3iqCjXWBWHj2axJ3IVYwtsR8tIJIImq-akAm1T1UNP8lcT LLryywbydXekkVd_dPNil.jpg

      http://images.orkut.com/orkut/photos/PQAAAC2P1koTHrJPEdj2EGuDHUzyMgmef dLjxgkKL0pbgkcQHm_CRp2bG3iqCjXWBWHj2axJ3IVYwtsR8tIJIImq-akAm1T1UNP8lcT LLryywbydXekkVd_dPNil.jpg


      os links tavam com erro, então :)

      ogner
      Veterano
      # jun/11
      · votar


      bragaia2011

      Nao consegui ver as fotos...Mas é isso os shapes ( desenhos) se repetem pelo braço, muda somente a tônica!!

      renatocaster
      Moderador
      # jun/11 · Editado por: renatocaster
      · votar


      ogner

      Mas é isso os shapes ( desenhos) se repetem pelo braço, muda somente a tônica!!

      Hehe, chegou primeiro! É isso aí, tá respondido!

      bragaia2011

      Sacou, cara?

      Viu, sanou sua dúvida sem precisar criar um novo tópico. Essa é a ideia! É para isso que realmente é necessário usar a busca antes!

      Enviar sua resposta para este assunto
              Tablatura   
      Responder tópico na versão original
       

      Tópicos relacionados a Escala Pentatonica

      299.359 tópicos 7.769.570 posts
      Fórum Cifra Club © 2001-2016 Studio Sol Comunicação Digital