Notificações Amigos pendentes

      Fórum Cifra Club - maior fórum de m&uacite;sica do Brasil

      Um tópico para quem tem dificuldade em mudar de acordes e precisa de ajuda!

      Autor Mensagem
      Caio Bittencourt
      Veterano
      # jul/11


      Bem, hoje, após um dia de aprendizado com alguns amigos meus(que são ótimos guitarristas) decidi criar este tópico para ajudar quem ajudar quem têm dificuldade de mudar, montar aprender acordes.
      Bem para criar um exercício que combine a montagem e troca vou pegar duas músicas como exemplos: "Hoje quero sair só" de Lenine e "Viva a vida" de José Marcelo Pitta Santos(um dos meus amigos citados acima)

      Bem vamos lá!

      EX 1(Hoje quero sair só):


      e-------------------------------------------------------
      B------7-7-x----7-7------3-3-x------3-3-x--3-3----0-0---
      G------7-7-x----7-7------2-2-x------0-0-x--0-0----0-0---
      D------7-7-x----7-7------4-4-x------2-2-x--2-2----0-0---
      A----------x-----------------x--2-2-----x-2-------------
      E-7-7---------7------2-2-----------------------3-3------


      e------------------------------------------------------
      B------0-0---------------------------------------------
      G------2-2---------------------------------------------
      D------2-2---------------------------------------------
      A----0-------------------------------------------------
      E------------------------------------------------------


      EX 2(viva a vida)*:


      e-------------3----------------------------------------
      B-----6---3---4----------------------------------------
      G-----7---3---5---4------------------------------------
      D-----5---1---x---4------------------------------------
      A-----6---3---x---3------------------------------------
      E-------------4---4------------------------------------ 4x


      * --> Cada acorde deve ser tocado algumas vezes.

      Aqui vou colocar link para as músicas para as ideias de ritmo:

      Lenine - Hoje Quero sair só


      Malcelo Pitta - Viva a Vida

      Bem galera, agora é com vocês, então, "larga de ser preguiçoso e pega a guitarra e treina soldado!"

      celotoledo
      Veterano
      # jul/11
      · votar


      Caio Bittencourt

      Hummmm...legal....

      MPB não gosto não......

      Caio Bittencourt
      Veterano
      # jul/11
      · votar


      celotoledo

      Tipo, muita galera não vai gostar de MPB, mas todos temos que adimitir que a riqueza músical nelas as fazem ser uma ótima fonte de treino.

      Caio Bittencourt
      Veterano
      # jul/11
      · votar


      Vamos lá galera! UP!

      leo-guitar94
      Veterano
      # jul/11
      · votar


      Caio Bittencourt
      Relaxa ae, você upo o topico em 10 min... É quarta-feira e tem jogo essa hora.

      Caio Bittencourt
      Veterano
      # jul/11
      · votar


      leo-guitar94

      Ah, foi mal, hehe!

      Caio Bittencourt
      Veterano
      # jul/11
      · votar


      Up, ein galera!

      Enviar sua resposta para este assunto
              Tablatura   
      Responder tópico na versão original
       

      Tópicos relacionados a Um tópico para quem tem dificuldade em mudar de acordes e precisa de ajuda!

      303.278 tópicos 7.848.677 posts
      Fórum Cifra Club © 2001-2017 Studio Sol Comunicação Digital