Fórum Cifra Club - maior fórum de m&uacite;sica do Brasil

Acorde D9+ 7 5+

Autor Mensagem
guitar_VLP
Veterano
# ago/08


Galera peguei um material de teclado e tem esse acorde aqui
D9+ 7 5+

como que eu faço ele?

Obrigado

guitar_VLP
Veterano
# ago/08
· votar


up

Davi Dornelles
Veterano
# ago/08
· votar


bom,
existe varias interpretações!

e kda autor, tem um entendimento!

mas ao meu ver, pelo q vc colocou ai, esse acorde representa na verdade
D7(#9,b13)

Dedo 1 (pestana na 5º casa) no caso nas notas D(T) e C(b7)
Dedo 2 (corda B, 6º casa) na nota F(#9)
Dedo 3 (Abaixo do dedo 3, na nota Bb(b13)

valeu

B.Frusciante
Veterano
# ago/08
· votar



e------------------------------------------------------
B------6------------------------------------------------
G------5------------------------------------------------
D------8------------------------------------------------
A------5------------------------------------------------
E------------------------------------------------------


El Musicista
Veterano
# ago/08 · Editado por: El Musicista
· votar


D7/9/13b

e:-----------------------------------------------------
B:---11-----------------------------------------------
G:---09-----------------------------------------------
D:---10-----------------------------------------------
A:-----------------------------------------------------
E:---10-----------------------------------------------

Onde:

- Dedo 01, corda E, casa 10: Nota D (T)
- Dedo 02, corda D, casa 10: Nota C (7)
- Dedo 03, corda G, casa 09: Nota E (9M)
- Dedo 04, corda B, casa 11: Nota Bb (13b, dificilmente (eu nunca vi) este acorde vir nomenclado como 5ª aumentada (5+)).

Essa cifra está assim no teclado, imagino eu (porque eu não sei se é isso mesmo, um tecladista pode responder isso melhor que eu), porque no teclado, existe a possibilidade de ser fazer a tríade ou tétrade (com apenas uma das mãos), e a outra mão fazer as dissonâncias, tornando o acorde mais completo, o que não é possível fazer no violão ou guitarra, devido às limitações do instrumento.

Uma forma mais simplificada desse acorde:

e:---6----------------------------------------------
B:---5----------------------------------------------
G:---5---------------------------------------------
D:---0----------------------------------------------
A:---------------------------------------------------
E:--------------------------------------------------

Espero ter colaborado!!!

guitar_VLP
Veterano
# ago/08
· votar


Valeu galera!!!

Bolo de laranja
Veterano
# ago/08
· votar


D9+ 7 5+

Meu caro amigo,acho que você se confundiu.

Se essa quinta for aumentada como penso,(não estou acostumado com essa simbologia),creio que a nomenclatura certa seria D7(9+,11+)

11+(décima primeira aumentada) = 4+(quarta aumentada) = quinta diminuta(bb5,quinta diminuta)

Essas notas entre os parênteses são notas de tensão que fazem parte do acorde alterado.

Desculpa se falei alguma besteira!

Abraço

Davi Dornelles
Veterano
# set/08
· votar


Bolo de laranja


mano acho q o acorde ta certo, ele só colocou na ordem ''errada''

vc falou da 11+, acho q nao tem logica pq, como a 5+ pode sera uma 11+ ?

como ele falou 5+, realmente no teclado seria isso, mas para violão ou guitarra creio eu q entendemos ser uma b13, correto?

esse acorde faz parte do campo menor harmônico....

Dominante para cair em acordes menores;;;;;

se falei bobagem alguem me corrija por favor..

abraço

El Musicista
Veterano
# set/08
· votar


Davi Dornelles

como ele falou 5+, realmente no teclado seria isso, mas para violão ou guitarra creio eu q entendemos ser uma b13, correto

O 5+ é utilizado na guitarra. Em algumas cifras de jazz, é comum encontrarmos Dalt (que seria a 5ª do acorde alterada (5+)) (me corrijam se eu estiver errado, foi o que eu ouvi dizer).

Porém, para o acorde em questão, entendo que para facilitar a nomenclatura e a visualização do mesmo, utiliza-se o b13 (ou 13b).

Davi Dornelles
Veterano
# set/08
· votar


El Musicista

Perfeito Man

Sem comentários! Realmente a #5 acontece mesmo!

Valew

pedrobrito
Prêmio FCC 2007
# set/08
· votar


Bolo de laranja

Vc confundiu... é quinta aumentada e não diminuta.

É muito comum ver esse 5+, tanto em jazz e em músicas brasileiras em geral.

Davi Dornelles


esse acorde faz parte do campo menor harmônico....

Não cara... esse acorde não está no campo harmônico gerado pela escala menor harmônica...



guitar_VLP

Uai cara, é só saber as notas do acorde... vc já tem tudo que precisa hehehe
No teclado é ainda mais fácil executar o acorde com tantas notas
Fica assim: D - F# - A# - C - E , nesta ordem.
D = Tônica

F# = Terça maior

A# = Quinta aumentada

C = Sétima menor

E = Nona maior

Acho melhor escrever esse acorde assim:
D(5#/7/9M)

The Floyd Rose Lord
Veterano
# jul/09 · Editado por: The Floyd Rose Lord
· votar



e-------------1-----------------------------------------
B-------------3-----------------------------------------
G-------------3-----------------------------------------
D-------------0-----------------------------------------
A------------------------------------------------------
E------------------------------------------------------


parece que essa 9+ viraria um 3 menor uma oitava acima do D na corda D.
mas ainda precisa-se colocar a setima.


Corrigam-me se eu estiver errado.

Enviar sua resposta para este assunto
        Tablatura   
 

Tópicos relacionados a Acorde D9+ 7 5+

289.660 tópicos 7.556.431 posts
Fórum Cifra Club © 2001-2014 Studio Sol Comunicação Digital