Duvida sobre formação de acordes

    Autor Mensagem
    lucas1203
    Membro Novato
    # dez/17


    Oi, tem como vocês me explicarem a diferença de um C4 PARA UM C11 E DE UM C6 PARA UM C13?

    Buja
    Veterano
    # dez/17 · Editado por: Buja
    · votar


    No C4, voce adiciona a quarta no acorde...os seja o F.
    No C11 voce adiciona o F tambem, porem, mais agudo.
    No C6 voce adiciona a sexta...a nota A

            C4                 C6                C11  
    e------------------------------------------------------
    B-------1------------------1------------------6--------
    G-------0------------------2------------------5--------
    D-------3------------------2------------------5--------
    A-------3------------------3------------------3--------
    E------------------------------------------------------


    lucas1203
    Membro Novato
    # dez/17
    · votar


    No C4, voce adiciona a quarta no acorde...os seja o F.
    No C11 voce adiciona o F tambem, porem, mais agudo.
    No C6 voce adiciona a sexta...a nota A

    C4 C6 C11
    e------------------------------------------------------
    B-------1------------------1------------------6--------
    G-------0------------------2------------------5--------
    D-------3------------------2------------------5--------
    A-------3------------------3------------------3--------
    E------------------------------------------------------


    Então no caso seria C4 o F grave e C11 o F oitavado?

      Você não pode enviar mensagens, pois este tópico está fechado.
       

      Tópicos relacionados a Duvida sobre formação de acordes