Mamonas Assassinas ainda são os melhores !!!!

    Autor Mensagem
    Mestre Anime
    Veterano
    # jan/04


    Alguém sabe aonde eu acho as cifras dos Mamonas no cifraclub é esquezito só tem acorde........e Mamonas é mó pesadão......eu queria os bicordes, solos........mas aqui num tem,.......

    Alguem sabe ??

    ShelterYYZ
    Veterano
    # jan/04
    · votar


    dica:tira de ouvido

                              AH      ou     AH
    
    e----------------------|--------------|---------------
    B----------------------|--------------|---------------
    G----------4-3~--------|--------------|---------------
    D---5-4~----------5-4~-|--------------|---------------
    A--------2-------------|-5-5-4--------|-2-2-1---------
    E-3-------------3------|-------0-0-0- |-------0-0-0---


    ShelterYYZ
    Veterano
    # jan/04
    · votar


    eu num consigui edita.. o AH 'e em cima do 4 e do 1

    ShelterYYZ
    Veterano
    # jan/04
    · votar


    Eu tirei essas ae
    Robocop Gay


    e-/8-8-8-/8-8-8-8-10-----------------10----10----10-----------
    B-/8-8-8-/8-8-8-8-10b12-8------------10b12-10b12-10b12p8---8~~-
    G-------------------------/10 9/7------------------------9----
    D---------------------------------10--------------------------
    A-------------------------------------------------------------
    E-------------------------------------------------------------



    e-----------------10---------------------8----8-8-8----
    B---------8h10b12----10b12r10p8-----8h10-8----8-8-8----
    G-----7h9-------------------------9--------------------
    D-7h9-------------------------------------------------
    A------------------------------------------------------
    E------------------------------------------------------



    e------------------------------------------------------
    B-/8-6-5-6/8~~-6-5~~-5h6p5---5h6~--p5------------------
    G--------------------------7----------7~---7b9--r7p5~~-
    D------------------------------------------------------
    A------------------------------------------------------
    E------------------------------------------------------



    e------------------------------------------------------
    B----------------8b10---8b10-8b10-8b10-8~~~------------
    G-----5~~--5h7p5---------------------------------------
    D-5h7--------------------------------------------------
    A------------------------------------------------------
    E------------------------------------------------------


    O Solo do final da mto trabalho escreve.. senao eu escreveria

    ShelterYYZ
    Veterano
    # jan/04
    · votar


    Mundo Animal

    PM.. ... ... ...
    e------------------------------------------------------
    B------------------------------------------------------
    G-----9------9------7-----7--0h2/5~-2--0h2/5--2---0h2--
    D-----9------9------7-----7--0h2/5~-2--0h2/5--2---0h2--
    A-----7------7------5-----5----------------------------
    E-0-0----0-0----0-0---0-0------------------------------


    Tem a outra q comeca assim

    e------------------------------------------------------
    B------------------------------------------------------
    G------------------------------------------------------
    D-2--3--5~---------------------------------------------
    A-2--3--5~---------------------------------------------
    E-0--1--3~---------------------------------------------


    Sei l'a.. e por ae vai.. ajudo ??

    conte
    Veterano
    # jan/04
    · votar


    u q eu mais gosto do mamonas eh a criatividade nas letras..tah eh soh bestera, mas h criativo hehehe

      Enviar sua resposta para este assunto
              Tablatura   
      Responder tópico na versão original
       

      Tópicos relacionados a Mamonas Assassinas ainda são os melhores !!!!