Tablaturas

    Autor Mensagem
    DcardosoA
    Veterano
    # mai/04


    Pessoal gostaria de saber sobre as tablaturas.
    O que sao?
    Sao boas para iniciantes?
    Caso for bom me passem dicas de como aprender, onde, .....


    Valeu!!!!!!!!!!!

    JoséLuis
    Veterano
    # mai/04
    · votar


    Tablaturas são uma forma simplificada de anotar músicas. Como a maior parte das pessoas não sabe ler de pauta, utiliza-se as tablaturas como uma forma de pauta. Existem tablaturas para vários instrumentos. No caso da guitarra ou violão são da seguinte forma:


    e------------------------------------------------------
    B------------------------------------------------------
    G------------------------------------------------------
    D------------------------------------------------------
    A------------------------------------------------------
    E------------------------------------------------------


    A cada linha corresponde uma das cordas do violão (6 cordas 6 linhas), começando pela 1ª corda (vemos a tablatura sob o ponto de vista do executante, como se olhamos para o braço do violão enquanto tocamos).
    a 1ª corda: e (Mi); 2ª: B (Si), etc...

    Na respectiva corda da tablatura colocam-se números e símbolos: aos números correspondem o trasto onde se pressiona a corda ex:


    e---1-0-3----------------------------------------------
    B----------3-0-1---------------------------------------
    G------------------------------------------------------
    D------------------------------------------------------
    A------------------------------------------------------
    E------------------------------------------------------


    Os símbolos servem para distinguir o efeito ou forma de tocar aquela nota, ex:(início da música "Tears in heavan" de Eric Clapton)

    h
    e---0-3------------------------------------------------
    B-------0----------------------------------------------
    G------------------------------------------------------
    D-----------------2------------------------------------
    A----------2h3p2---------------------------------------
    E------------------------------------------------------

    Aqui encontra-se o exemplo de 2 formas de Hammer on (h) e 1 de Pull of.
    Outros Símbolos:
    s ou / (Slide)
    v ou ~ (vibrato)
    ^ ou T ou tap (Tapping)
    b ou B (bending)
    h (hammer on)
    p (pull of) - contrário de hammer on

    Existem outros símbolos estes são os mais usados.
    Se não conheces os efeitos então deverás procurar conhecê-los e pratica-los.
    Boa Sorte.

    Barbara Jolie
    Veterano
    # mai/04
    · votar


    Eu esqueci o q são o tapping e o pull of.
    pode me dizer?

    PuNk Bass
    Veterano
    # mai/04
    · votar


    Barbara Jolie
    Tapping é "martelar" uma nota com a mão direita, pull off eh vc tocar uma nota normalmente, rapidamente tocar outra nota e "soltá-la" a fim de que o som saia da primeira nota tocada.

    Barbara Jolie
    Veterano
    # mai/04
    · votar


    PuNk Bass
    ih....me confundiu, pensei q o hammer era martelar.

    PuNk Bass
    Veterano
    # mai/04
    · votar


    Barbara Jolie
    hammer on é martelar com a mão esquerda...
    O tapping é usado mais na guita e no baixo. Se vc toca a casinha 2, e depois quer tocar a casa 19 por exemplo, fica difícil vc mudar rapidamente com a mão esquerda, o tapping facilta bastante, apesar de eu nunca faço tapping no violão

    Barbara Jolie
    Veterano
    # mai/04
    · votar


    PuNk Bass
    ah saquei.
    Valeu, brigadinha!!!

    Barbara Jolie
    Veterano
    # mai/04
    · votar


    sempre isso aqui ^ vai ser como taping? eu já vi como bend tb.

    Zakk_Wylde
    Veterano
    # mai/04 · Editado por: Zakk_Wylde
    · votar


    Barbara Jolie

    tapping normalmente é um T em cima da tab. ex:

                             T
    
    e------------------------------------------------------
    B---------------------------15---------------------------
    G------------------------------------------------------
    D------------------------------------------------------
    A------------------------------------------------------
    E------------------------------------------------------


    NandoViolão
    Veterano
    # mai/04
    · votar


    Eu pensava que só tina coisas assim pra Baixo e Violão e como o meu é Acustico o q da pra fazer com ele....?
    Hammer -On ?
    Coisas do Tipo,pq eu nem conheço todas coisas que se faz com violão?

    PuNk Bass
    Veterano
    # mai/04
    · votar


    NandoViolão
    Hammer on e pull off dá para fazer em qualquer violão... agora bend e tapping não são muito "confortáveis" em cordas de aço...

      Enviar sua resposta para este assunto
              Tablatura   
      Responder tópico na versão original
       

      Tópicos relacionados a Tablaturas