Solo acustico - sabem de quem é?

    Autor Mensagem
    Paulo Feresin
    Veterano
    # 30/abr/19 18:13


    Fala pessoal, beleza?

    Será que vcs conseguem identificar qual é essa musica?
    Eu não lembro quem toca, mas do começo dela. Vou colocar a tab aqui:


    Repete varias vezes:

    e------------------------------------------------------
    B-------------(12)-----------------------------------------
    G----------(12)---(12)------------------------------------
    D-------(12)----------(12)------------------------------------
    A------------------------------------------------------
    E--(7)----------------------------------------------------



    Depois duas vezes:

    e------------------------------------------------------
    B-------0---0---0-----------------------------------------
    G---------2---0---0---------------------------------------
    D-----0-------------------------------------------------
    A------------------------------------------------------
    E--3----------------------------------------------------


    Segue:


    e------------------------------------------------------
    B---------1-0-1---1-------------1-0-1--1-----------------------
    G---------------2---2----------------2---0-----------------
    D------2----------------------2--------------------------
    A---0-----------------------0----------------------------
    E------------------------------------------------------



    E repete a primeira parte.
    Alguem conhece?

      Enviar sua resposta para este assunto
              Tablatura   
      Responder tópico na versão original
       

      Tópicos relacionados a Solo acustico - sabem de quem é?