brasileirinho!!!

    Autor Mensagem
    Crono
    Veterano
    # jan/03


    onde eu acho essa tab???

    Cristina
    Veterano
    # jan/03
    · votar


    Achei aqui no cifraclub:

    1a. parte
    
    e -9-9-9-9-0-5-9-0-5-9-0-5-9-0-5-9-0-5-8-0-5-8-0-5-8-0-5-9-0-5-9-0-5-9-9-9-9-9-8-7-6
    B ----------------------------------------------------------------------------------
    G ----------------------------------------------------------------------------------
    D ----------------------------------------------------------------------------------
    A ----------------------------------------------------------------------------------
    E ----------------------------------------------------------------------------------

    e -5-0-1-2-3-2-1-0-2-3-4-3-2-0-2-3-4-3-2-0-5-4-2-0-5-4-2-0-5-4-2-0------------------
    B -----------------------------------------------------------------1-0-------------1
    G ---------------------------------------------------------------------2-0-------2--
    D -------------------------------------------------------------------------4-0-4----
    A ----------------------------------------------------------------------------------
    E ----------------------------------------------------------------------------------

    e -0-2-4-2-0---0-2-0-------0-2-3-4-0-2-3-4-0-1-2-3-4-3-2-0-5-0-2-4-5-0-2-4-5-4-2-0-4
    B -----------2-------2-1-0----------------------------------------------------------
    G ----------------------------------------------------------------------------------
    D ----------------------------------------------------------------------------------
    A ----------------------------------------------------------------------------------
    E ----------------------------------------------------------------------------------

    e -0-2-3-4-2-0-2-0------------------------------------------------------------------
    B ------------------1-0-------------------------------------------------------------
    G ----------------------2-0---------------------------------------------------------
    D ----------------------------------------------------------------------------------
    A ----------------------------------------------------------------------------------
    E ----------------------------------------------------------------------------------

    2a. Parte
    3 vezes
    e --------------|-1-0---0-1-0---0-1-0---------------0-1-0-1-0-1-0-3-2-1-0-----------
    B --------------|-----1-------1-------1-----------1---------------------------------
    G ---0-2-3-2-0--|-----------------------2-------2-----------------------------------
    D -0------------|-------------------------4-0-4-------------------------------------
    A --------------|-------------------------------------------------------------------
    E --------------|-------------------------------------------------------------------

    1a. vez
    e -5-4-3-2-1-0--1-1-1-1-10---------------0-1-0-1-0-3--2-1-0---
    B -3-3-3-2-1-0-------------1-----------1----------------------
    G ---------------------------2-------2------------------------
    D -----------------------------4-0-4--------------------------
    A ------------------------------------------------------------
    E ------------------------------------------------------------

    Voltar ao começo da 2a. parte
    2a. vez
    e ---1--1---1---1---3---------------------------1-0---
    B ----------------------------------------------------
    G -5--5---5---5---5-----0-2-3-2-0-----0-2-0---2-----0-
    D --------------------0-----------3-2-------4---------
    A ----------------------------------------------------
    E ----------------------------------------------------

    Repete 1a. parte

    Para terminar:

    4vezes
    e -5-4-2-0-|
    B ---------|
    G ---------|
    D ---------|
    A ---------|
    E ---------|


    Crono
    Veterano
    # jan/03
    · votar


    obrigado, eu tinha procurado Waldir com "V"

      Enviar sua resposta para este assunto
              Tablatura   
      Responder tópico na versão original
       

      Tópicos relacionados a brasileirinho!!!