Ae pessoal... LEIAM ESSE TOPICO! (Tablaturas)

Autor Mensagem
polaco225
Veterano
# dez/03 · Editado por: Moderador


Opa pessoal! tudo em riba com vocês???
Então, o negócio é o seguinte: vamo começa a postá umas tablaturas que vocês tenham ae no seu computador e que não estão no cifraclub... vale qualquer coisa! Desde solos de violão famosos até riffzinhos. O que importante é colaborar. Isso ae.. flw galera!

Crash
Veterano
# dez/03
· votar


Essa ideia e mto boa!
Mas no momento estou sem ideias =(
qnd eu lembra de algo eu passo...
=)

The Hellraiser
Veterano
# dez/03
· votar


Idem!

conte
Veterano
# dez/03
· votar


eu tenhu um monte de dedilhado aqui gravado q eu fiz
vo tira eles de novo em mandar pra cá

SNK
Veterano
# dez/03
· votar


polaco225
boa ideia cara!

conte
manda ae pra gente ve os seus dedilhados!

maggie
Veterana
# dez/03
· votar


Boa idéia [pena que perdi tudo que tinha no HD hehe].

Quando der scaneio e mando umas partituras.

conte
Veterano
# dez/03
· votar


HJ eu mando
up! para esse topico

polaco225
Veterano
# dez/03
· votar


Ae pessoal, ainda bem q vocês curtiram a idéia. Agora vamos agir né? Divulguem esse tópico. Cada amigo de vocês q tiver um dedilhado massa, ou um solo, sei lá... qualquer coisa: falem para eles postarem aqui. Vamo agir ae... Flw.. abraços.. Polaco.. e pra qm quisé eu coloquei o solo de Tears in Heaven, na versão do Emmerson Nogueira ae no fórum esses dias.. é só da uma procurada que voc6es acham.. valeu pessoal. To indo nessa...

Dave Murray
Veterano
# dez/03
· votar


eu tirei uma musica q nao tem tab do CC...eh bem simplisinha mas eh bem legal de tocar...THE VENTURES - SECRET AGENT MAN...eu fiz ela no GP tbm e pus no mysongbook...qm quiser procura lah...

polaco225
Veterano
# dez/03
· votar


Posta ela ae Dave Murray! Tipo, vamos fazer um tópico recheado de tabs.. pra facilitá a vida da galera toda ae.. hehehe.. Valeu cara.. tu eh brother.. te agradeço ainda pela mãozinha cm a tab do Emmerson Nogueira.. flw!

Dave Murray
Veterano
# dez/03
· votar


polaco225
dexo ver aqui...perae

Children_Of_Bodom
Veterano
# dez/03
· votar


Hhahah se for coloca as tab q nao tem no cifraCUb entao vai te mais tab aki do q la

Dave Murray
Veterano
# dez/03
· votar


INTRO 4X

e----0----0---0-----0----0---0--
B-0----1----1----2----1----1----
G-------------------------------
D-------------------------------
A-------------------------------
E-------------------------------

.

e-------------------------------------------
B-------0-----------------------5------5-5--
G-----0---2---2-0-2-0-----0-----4--4-7------
D-2-2-----------------2-2---2---------------
A-------------------------------------------
E-------------------------------------------

.

e------------------------------------------------
B----------------3---4--------3---5-5-5-3--------
G-----0-2--4-4-4---4---4----4---4---------4---4--
D-2-2---------------------------------------5----
A------------------------------------------------
E------------------------------------------------

.

e-------------------------------------
B----------------------3--------------
G-2-0-2---2-0-2-0----4---2-0-2-2------
D-----------------2--------------2-0--
A-------------------------------------
E-------------------------------------

.

e------------------------------
B--------0---------------------
G------0---2--2-0-2-2-----0----
D--2-2----------------2-2---2--
A------------------------------
E------------------------------

.

e------2--------------2-------
B---3----5-3-5-----3----5-3-5-
G-4--------------4------------
D-----------------------------
A-----------------------------
E-----------------------------

.

e--------------------------------------------------
B--------------------------------------------------
G-4-2-0-2--2-0-2--2-0-2--2-0-2-0----------0--2-0-4-
D--------------------------------2-0--2-2----------
A--------------------------------------------------
E--------------------------------------------------

.

e------2--------------2-------
B---3----5-3-5-----3----5-3-5-
G-4--------------4------------
D-----------------------------
A-----------------------------
E-----------------------------

.

ai repete tudo uma vez...mas tem q ouvr a musica pra sacar quando tocar...pega aqui o arquivo GP...ai jah da uma olhada como eh e da pra tocar com o acompanhamento...

http://www.mysongbook.com/?msbp=eng%2Ctab%2Ctab_list&keyword=secret+ag ent+man

polaco225
Veterano
# dez/03
· votar


Valeu Dave.. mto boa essa...
Ae pessoal! sigam o exemplo do cara.. vamo mandá tabs ae!

Children_of_bodom
Foi por isso q eu criei esse tópico.. pq o CifraClub tah meio capenga de tabs...

Dave Murray
Veterano
# dez/03
· votar


eu acho q vou corrigir todas as tabs do maiden q tem lah e fazer tabs decentes...pqp...tem cada coisa tosca lah q...

conte
Veterano
# dez/03
· votar


Dave Murray
cara, eu tenhu mta raiva desses caras q mandam coisas toscas.. ja viu a tab de guitarra do angels cry do angra?
e essa no baixo tava pior ainda, dai eu mandei a mais certa, a rebirth tava horrivel e um cara mando a versao 2 do carry on mais escrota possivel...
eu fico mto puto, de onde os caras tiram akilo???
hehehheehe

Dave Murray
Veterano
# dez/03
· votar


conte
auehuaehueuhe..nao faço nem ideia kra de onde eles tiram...vai ver q na guitarra deles eh diferente...aeuhUAeuUAHeuhAEhuAehuAEuhuhEA

conte
Veterano
# dez/03
· votar



e------------------------------------------------------
B-------------3---------------3---------------0--------
G---------0-------0-------0-------0-------2-------2----
D-------2---2---2---2---2---2---2---2---2---2---2---2--
A-0-2-3---------------2---------------0----------------
E------------------------------------------------------

e------------------
B---------0--------
G-----2-------2----
D---2---2---2---2--
A-0----------------
E------------------2x


e--------------3----------------1---------------0---------
B---------1--------1-------3--------3-------3-------3-----
G-------2---2----2---2---2---2----2---2---0---0---0---0---
D-0-2-3----------------0----------------2-------------------
A------------------------------------------------------
E------------------------------------------------------

e-------------1-------------------------------3--------
B---------1-------1-----------3-----------3-------3----
G-------2---2---2---2-----2-------2-----4---4---4---4--
D-0-2-3---------------0h3---3---3---3-5----------------
A------------------------------------------------------
E------------------------------------------------------

eu que inventei, eh coisa simples , invetei pra faze uma base pra algm solo q eu quizer fazer

conte
Veterano
# dez/03 · Editado por: conte
· votar


fico tdo junto , dexa eu melhora:
<pre>

conte
Veterano
# dez/03
· votar


PORCARIA

e------------------------------------------------------
B-------------3---------------3---------------0--------
G---------0-------0-------0-------0-------2-------2----
D-------2---2---2---2---2---2---2---2---2---2---2---2--
A-0-2-3---------------2---------------0----------------
E------------------------------------------------------

\\\\\\\\\\\\\\

e------------------
B---------0--------
G-----2-------2----
D---2---2---2---2--
A-0----------------
E------------------2x

\\\\\\\\\\\\\\\\

e--------------3----------------1---------------0---------
B---------1--------1-------3--------3-------3-------3-----
G-------2---2----2---2---2---2----2---2---0---0---0---0---
D-0-2-3----------------0----------------2-------------------
A------------------------------------------------------
E------------------------------------------------------

\\\\\\\\\\\\\\\\

e-------------1-------------------------------3--------
B---------1-------1-----------3-----------3-------3----
G-------2---2---2---2-----2-------2-----4---4---4---4--
D-0-2-3---------------0h3---3---3---3-5----------------
A------------------------------------------------------
E------------------------------------------------------

\\\\\\\\\\\\\\\\

conte
Veterano
# dez/03 · Editado por: conte
· votar


Tem otro aki q eu inventei e q curti pra caralho, axei qfico bunito:
<pre> 2x 2x 2x
e-----------------|-----------------|------------------|--
B---------0-------|---------0-------|---------0--------|--
G-----5-------5---|-----5-------5---|-----5-------5----|--
D---2---2---2---2-|---2---2---2---2-|---5---5---5---5--|--
A-3---------------|-0---------------|------------------|--
E-----------------|-----------------|-3----------------|--
</pre>
////////

<pre>
e------------------------------------------------------
B---------0----------1-------1----------------------------
G-----5-------5-------2-------0----------------------------
D---3---3---3---3-3-----3-2-----2------------------------
A-5-----------------------------------------------------
E------------------------------------------------------
</pre>

conte
Veterano
# dez/03
· votar


fico torto pq eu editei mas naum ta nda errado

conte
Veterano
# dez/03
· votar


tava errado sim (oo mas eu so enrolado hein!!!!)
 2x              2x                  2x 

e-----------------|-----------------|------------------|--
B---------0-------|---------0-------|---------0--------|--
G-----5-------5---|-----5-------5---|-----5-------5----|--
D---2---2---2---2-|---2---2---2---2-|---5---5---5---5--|--
A-3---------------|-0---------------|------------------|--
E-----------------|-----------------|-3----------------|--

////////

 

e------------------------------------------------------
B---------0----------1-------1----------------------------
G-----5-------5-------2-------0----------------------------
D---3---3---3---3-3-----3-2-----2------------------------
A-5-----------------------------------------------------
E------------------------------------------------------


polaco225
Veterano
# dez/03
· votar


Ae galera! Tou gostando de ver! Isso ae! Ainda bem que vocês colaboraram... todas as tabs ficaram mto boas!!

Conte
Aí, ficou mto massa as suas frases.. pode continuar mandando! hehehe

SNK
Veterano
# dez/03 · Editado por: SNK
· votar


ae a tab é bem simples mas eu acho bem bonitinha

<pre>
e-----------0------------------3-------------------
B------1--------1----------3-------3---------------
G----0---0----0---0------0---0---0---0-------------
D--------------------------------------------------
A-3------------------0-2----------------------------
E--------------------------------------------------
</pre>



<pre>
e-------------0-------------------1----------------
B--------1--------1------------1------1------------
G------2---2----2---2--------2---2--2---2----------
D-0----------------------0-3-----------------------
A---0----------------------------------------------
E--------------------------------------------------
</pre>

SNK
Veterano
# dez/03
· votar


ae a tab de cima saiu torta


e-----------0------------------3-------------------
B------1--------1----------3-------3---------------
G----0---0----0---0------0---0---0---0-------------
D--------------------------------------------------
A-3------------------0-2----------------------------
E--------------------------------------------------





e-------------0--------------------1----------------
B--------1--------1------------1-------1------------
G------2---2----2---2--------2---2---2---2----------
D-0----------------------0-3-----------------------
A---0----------------------------------------------
E--------------------------------------------------


polaco225
Veterano
# dez/03
· votar


Ae galera!!
tah mto boa a qualidade dos dedilhados e frases aqui hein?? vamos enviar mais! divulguem esse tópico tbm!

conte
Veterano
# dez/03 · Editado por: conte
· votar


minha 1ª composiçao e uma das mais q eu gosto

e----------------------------------|-----------|---------------------- |
B-------------3----------------0-3-|-------------3----------------0-1- |
G-----0---2--------------0---0-----|-----0---2--------------0---0----- |
D---2---2---2---2----0h2---2-------|---2---2---2---2----0h2---2------- |
A-0----------------3---------------|-0----------------3--------------- |
E----------------------------------|---------------------------------- | 2x



e--------------------------------------------------------->
B---------0----------------1----------------0------------->
G-------0-----0----------0-----0----------0-----0--------->
D-----2-----2---2------2-----2---2------2-----2---2------->
A---2----------------3----------------2------------------->
E-0----------------3----------------0--------------------->



>---------0-------|---------------------------------->
>-------1-----1---|---------0---------------1-------->
>-----0-----0---0-|-------0-----0---------0-----0---->
>---2-------------|-----2-----2---2-----2-----2---2-->
>-3---------------|---2---------------3-------------->
>-----------------|-0---------------3---------------->



e-------------------------2-------|
B---------1-------------3-----3---|
G-------2----2--------2-----2---2-|
D-----2----2---2----0-------------|
A---0-------------0---------------|
E-0-------------------------------|


SNK
Veterano
# dez/03
· votar


conte
fico legal kra...o problema e a gente descobri o ritmo né?

polaco225
Veterano
# dez/03
· votar


Ae galeraaaaaaa!!
vamo postá mais umas tablaturas aeee!!1

Enviar sua resposta para este assunto
        Tablatura   
Responder tópico na versão original
 

Tópicos relacionados a Ae pessoal... LEIAM ESSE TOPICO! (Tablaturas)