k-sis - beijos, blues e poesia (tab)

    Autor Mensagem
    mahv
    Veterano
    # mai/10


    estou tendo dificuldades no dedilhado, então eu gostaria de saber se alguém tem tabs da musica beijos, blues e poesia, principalmente da parte do refrão, como nesses vídeos:

    http://www.youtube.com/watch?v=sdQydct9KpE
    http://www.youtube.com/watch?v=MBmVAS6xr_Q

    obrigada desde já ;D

    Caio Gomes
    Veterano
    # mai/10 · Editado por: Caio Gomes
    · votar


    O principal é mais ou menos assim:


    G C9
    e--3-3----3--3----------------------------------------------
    B--3-3----3--3----------------------------------------------
    G--0-0----0--0----------------------------------------------
    D------------------------------------------------------
    A--------3--3---------------------------------------------
    E-3-3--3--------------------------------------------------


    A parte que você quer (refrão) segue o mesmo padrão, só que algumas partes são arpejos simples (do que eu ouvi, não prestei muita atenção). Não da pra eu tirar agora, tô sem tempo. Depois se der eu tento. ;x.

    mahv
    Veterano
    # mai/10
    · votar


    poxa Caio, obrigada ^^
    bom, essa parte eu já consigo tocar até, o problema mesmo é o refrão ;x
    espero que consiga tirar ;D

    Caio Gomes
    Veterano
    # mai/10
    · votar


    No refrão quando chegar naquela parte "Baby, i love you". No acorde de Dó para ser mais específico (seguindo cifra do cifraclub). É o seguinte:

     C      D
    e-------------2-----------------------------------------
    B-------1-----3-----------------------------------------
    G-------0---2-------------------------------------------
    D---------0---------------------------------------------
    A-0-2-3-------------------------------------------------
    E-------------------------------------------------------


    ou

     C         D
    e---------------2---------------------------------------
    B---------1---3------------------------------------------
    G-------0-----------------------------------------------
    D-----------0-------------------------------------------
    A-0-2-3---------------------------------------------------
    E------------------------------------------------------


    Bom, de acordo com a gravação original aparenta ser somente isto de "diferente". No segundo vídeo que você colocou o cara toca a segunda parte do refrão dedilhado, não sei se vai querer. Enfim, acho que é isso.

    OBS: Com capotraste (1ª casa) fica bem melhor.

    mahv
    Veterano
    # mai/10
    · votar


    a parte que complica é a dos acordes Em, Em/D#, Em/D e Em/C#, da primeira parte do refrão, que ficam estranhos quando tento dedilhar KKK

    Caio Gomes
    Veterano
    # mai/10
    · votar


    Mas pelo que ouvi esses acordes não são dedilhados. É o mesmo padrão da música:

      Em     Em/D#      Em/D      Em/C#
    e---0---0-----0---0-----3---3-----3---3--------------
    B---0---0-----0---0-----5---5-----5---5--------------
    G---0---0-----0---0-----4---4-----4---4--------------
    D-----------1---1---1-0---0---0----------------------
    A-------------------------------4---4----------------
    E-0---0---0------------------------------------------


    mahv
    Veterano
    # mai/10
    · votar


    é que fica meio estranho ;p
    mas com esse Em/C# que vc passou fica mais bonito que o outro que eu usava KKK
    obrigada *-*

      Enviar sua resposta para este assunto
              Tablatura   
      Responder tópico na versão original
       

      Tópicos relacionados a k-sis - beijos, blues e poesia (tab)