Leãozinho - Caetano Veloso

    Autor Mensagem
    Hec
    Veterano
    # out/08


    Alguém aí sabe a batida dessa música que eu não consegui pegar?

    desde já, obrigado

    kiki
    Moderador
    # out/08
    · votar


    Hec
    é um dedilhado

    na primeira parte faz assim:

      C              G
    e---0---0---0---0-----2---2---2---2--------------------
    B---1---1---1---1-----2---2---2---2--------------------
    G---------0-------------------------------------------
    D-----2-------2-------------0---------------------------
    A-3---------------------2-------2-----------------------
    E-------------------1-----------------------------------


    e assim por diante. siga essa lógica pelos demais acordes!

    Hec
    Veterano
    # out/08 · Editado por: Hec
    · votar


    kiki,

    obrigado... vou tentar fazer assim que possível.

    Hec
    Veterano
    # out/08
    · votar


    kiki, há como disponibilizar um vídeo ?

    kiki
    Moderador
    # out/08
    · votar


    Hec
    puxa, nao tem no youtube?
    eu teria que fazer, mas ando meio sem tempo. se eu conseguir eu faço...

    ricre
    Veterano
    # out/08 · Editado por: ricre
    · votar


    Hec

    Alguém aí sabe a batida dessa música que eu não consegui pegar?

    desde já, obrigado


    Este ritmo chama-se: estilo Walking bass.

    Veja abaixo a Movimentação da batida.

    P tônica (ima) p variante (ima) polegar alternado e (ima)P tônica finalizando (ima).

    se vc tiver dúvida? eu vou ensinar na minha próxima video aula.:)

    ricre
    Veterano
    # out/08 · Editado por: ricre
    · votar


    [T]
    e------------10----------10-----------10-----------10------
    B------------21----------21-----------21----------21-------
    G------------30----------30-----------30----------30-----------
    D------------------------------------------------------
    A------53------------------------------------------------
    E-------------------60-----------63----------60--------------


    Eu transcrevi para vc em tablatura... espero que entenda ai ok.

    53 quer dizer quinta corda na terceira casa,30 quer dizer terceira corda solta, 21 quer dizer: segunda corda primeiro traste...

    E (30 21 10) nessa mesma ordem vc toca juntas. ok.:)

    OBS: esse esquema está no acorde de dó maior com os baixos sendo alternados.

    A movimentação dever ser tercinados e bem rápidos,recomendo que vc depois de ter visto esse grafico aqui! ouça a gravação.

      Enviar sua resposta para este assunto
              Tablatura   
      Responder tópico na versão original
       

      Tópicos relacionados a Leãozinho - Caetano Veloso