Acorde mais difícil

Autor Mensagem
kyo_ryo
Veterano
# jun/08
· votar


Raven_Heart
Tak Matsumoto.

Enfim, aprendi outro acorde que é um saco, em uma afinação diferente da normal, 242030, uma pestana nas três cordas de cima com o indicador, a quinta normal com o anelar e o dedo médio na casa 3 sem esbarrar nas outras cordas.

guitarclub
Veterano
# jun/08
· votar


toquem em powerchord que todos serão faceis, hehe

Desprogramador
Veterano
# jun/08 · Editado por: Desprogramador
· votar


PedroShinzato
É uma né? Pra que sétimas, nonas e outros intervalos cabulosos?
Taca só a tônica e a quinta que está certo!
hahahaha

TioAle
Veterano
# jun/08
· votar


Taca só a tônica e a quinta que está certo!
hahahaha


hahahahahah boa.. no máximo uma 3ª tbm e olhe lá!!

Fábio MG
Veterano
# jun/08 · Editado por: Fábio MG
· votar


Bolo de laranja
kiki


Bolo de Laranja

você pode fazer o C6 assim:



e------X
B------6
G------9
D------7
A------X
E------8


O C6 não pode ser feito assim não, esse acorde é um C6(11) que na verdade soa como um Dm(add9)/C.

Pensem comigo:

C6 = Dó (fundamental), Mi (3ª maior), Sol (5ª justa), Lá (6ª maior)

Esse que você indicou tem as seguintes notas: Dó, Mi, Lá e . Esse Fá faz toda a diferença.

Você deve ter se confundido com o seguinte desenho de C6:

e---------x
B---------8
G---------9
D---------7
A---------x
E---------8

Abraços.

kiki
Moderador
# jun/08
· votar


Fábio MG
verdade. não havia reparado, passou batido.

Adrianodevil
Veterano
# jun/08
· votar


Si fumol... Com certeza o mais difícil...

guitar djow
Veterano
# jun/08
· votar


nenhum...

Mas tive problemas com E/G# já

Pai Edu
Veterano
# jul/08
· votar


Dificil eh o Em7 na casa 0, principalmente sem olhar, ora pois pois //uu\\

Koisa
Veterano
# jul/08
· votar


Pai Edu

Como assim?
Seria esse?


e------------------------------------------------------
B-----3------------------------------------------------
G-1----------------------------------------------------
D--2---------------------------------------------------
A---2--------------------------------------------------
E------------------------------------------------------


Nycolas
Veterano
# jul/08
· votar


Jokerman
Tbm nao gosto de fazer o B... na verdade nao gosto de fazer nenhuma pestana embaixo, pq meus dedos sao grandes e eu nao consigo colocar 3 enfileirados aehoeauh
ai eu faço B9 q eh assim : x24422
e assim eu faço cm tdas as outras pestanas :D

Nycolas
Veterano
# jul/08
· votar


Koisa
nem... eh Em7 q ele falou...
e----------------
B-------3-------
G---------------
D---2-----------
A---2-----------
E---------------

Qnatry
Veterano
# jul/08
· votar


Bb >>> Eb >>>
Abaixa meio tom a afinação e usa o capotraste.
Ou usa somente o capotraste.

Mais difícil pra mim é o Em dedilhado:

e---0-
B---x-
G---x-
D---0-
A---0-
E---0-


Orriveu

Pardal
Veterano
# jul/08
· votar


Koisa

Respondendo à sua pergunta, por enquanto tem sido o acorde do 9º compasso do prelúdio da suíte 996, um mi maior com sétima.

É, é um E7 sim, e daí?

Pardal
Veterano
# jul/08
· votar


a digitação dele é

e---0-
B---0-
G---1-
D---2-
A---5-
E---0-

Pardal
Veterano
# jul/08
· votar


Também já tive muita dificuldade com aquele prelúdio em ré menor, que tem a seguitne digitação:

e---5-
B---5-
G---5-
D---X-
A---X
E---1-

(os X´s não são tocados)

Mas deixei de ter dificuldades depois do sete cordas nesse, é só fazer uma pestana na quinta casa agora.

Ch4p0L1N
Veterano
# jul/08
· votar


esse é treta

e---------5--------------------------------------------
B---------11--------------------------------------------
G---------3--------------------------------------------
D------------------------------------------------------
A---------25--------------------------------------------
E----------1-------------------------------------------


Koisa
Veterano
# jul/08
· votar


Ch4p0L1N

Qual seres??

Ch4p0L1N
Veterano
# jul/08
· votar


Koisa
Qual seres??

se não me engano é um H trisol

tretretre
Veterano
# jul/08
· votar


realmente digitação é o bicho mas pra mim a pior que tem é o A/C# cara essa nota parece mais uma aranha vei!!!!!

Nycolas
Veterano
# jul/08
· votar


D/C# (add13°)

e -----------------5------------
B-----------3-------------------
G-------2----------------------
D-------------------------------
A--------------4---------------
E-------------------------------

Agora jah nao tenho mta dificuldade, mas era treta no inicio...
uso ela mto quando vo tocar uma musica em Ré, e vo fazer a Sequencia D-Bm-G-A... a passagem do D pro Bm eu uso ela :D

Koisa
Veterano
# jul/08
· votar


H trisol



?????

Ch4p0L1N
Veterano
# jul/08
· votar


Koisa
huhaahua, to zuando né, vc não viu o acorde?

Ch4p0L1N
Veterano
# jul/08
· votar


Nycolas
e -----------------5------------
B-----------3-------------------
G-------2----------------------
D-------------------------------
A--------------4---------------
E-------------------------------


legal, esse acorde é quase um riff

marcio_zav
Veterano
# jul/08 · Editado por: marcio_zav
· votar


Até hj não consigo fazer direito esse shape. Basicão esse <o>


e--2-----
B--4-----
G--4-----
D--4-----
A--2-----
E--------


Saiu tudo mascado...dai eu mando uma pestana nos 4, e como o ultimo F# =DD

pr0view
Veterano
# jul/08
· votar


esse é ruinzinho

e------------------------------------------------------
B---7---------------------------------------------------
G---4---------------------------------------------------
D---7---------------------------------------------------
A------------------------------------------------------
E---3---------------------------------------------------

ou

e---3---------------------------------------------------
B---4---------------------------------------------------
G---6---------------------------------------------------
D---7---------------------------------------------------
A------------------------------------------------------
E------------------------------------------------------

esse tb

e---7---------------------------------------------------
B---8---------------------------------------------------
G---9---------------------------------------------------
D------------------------------------------------------
A------------------------------------------------------
E---8---------------------------------------------------


denisb411
Membro Novato
# nov/16
· votar


Pessoal,

É muito errado fazer um B9 (citado pelo Nycolas) x24422 invés do B normal x24442 ??
Eles soam muito parecido...

Eu já desisti de tentar colocar 3 dedos com tanta disntancia... hoje em dia eu tento fazer sempre com o anelar fazendo uma pestaninha, mas a maioria das vezes a segunda corda abafa!

Amago
Membro Novato
# nov/16
· votar


Já que o tópico renasceu das cinzas como uma fênix indomável rsrs vou opinar, acho que o mais difícil e E/G#

JoeCruzGuitar
Veterano
# nov/16 · Editado por: JoeCruzGuitar
· votar


Pra mim o que é dificil é a "lógica" no braço de um instrumento de cordas.

É tão mais facil no piano hahah

Mas por conta da estrutura, acaba gerando um lance também, todo acorde complicado vai ter uma posição dele no braço que facilita um pouco mais a execução.

Por exemplo o E/G# que o Amago postou acima.

Acredito que tenha pensado nesta posição:



e------------------------------------------------------
B---------------------------4---------------------------
G---------------------3---------------------------------
D------------1------------------------------------------
A------------------------------------------------------
E---------------------2---------------------------------
2a 4a 5a.casa


Pensando rapido aqui, dá para fazer assim tambem:


e------------------------------------------------------
B--------------------2----------------------------------
G---------------1---------------------------------------
D-------------------------3-----------------------------
A------------------------------------------------------
E------------------------------------------------------
4a 5a 6a.casa


Ou assim:


e------------------------------------------------------
B--------------------1----------------------------------
G--------------------1----------------------------------
D--------------------1----------------------------------
A----------------------------3-------------------------
E------------------------------------------------------
9a. 11a. casa


Amago
Membro Novato
# nov/16
· votar


undefinedPor exemplo o E/G# que o Amago postou acima.

Acredito que tenha pensado nesta posição:



e------------------------------------------------------
B---------------------------4---------------------------
G---------------------3---------------------------------
D------------1------------------------------------------
A------------------------------------------------------
E---------------------2---------------------------------
2a 4a 5a.casa

Sim! Foi nesta mesmo que pensei

Enviar sua resposta para este assunto
        Tablatura   
Responder tópico na versão original
 

Tópicos relacionados a Acorde mais difícil