Escalas

    Autor Mensagem
    hipermusics
    Veterano
    # jul/03


    Alguem poderia me ensinar a fazer as escalas de todos os tons do violão? tipo, eu toco bem, mas nao consigo solar no tom certo, sempre saio do tom.....como eu faço?

    Agoth
    Veterano
    # jul/03
    · votar


    A maneira que eu usei pra aprender a solar decentemente foi ir solando na ''louca'',sem me preocupar com escalas, até aprender em quais áreas do braço o solo soa melhor para determinado tom em que sua música está. Mesmo que sua música não se enquadre totalmente em algum tom, o importante fazer o começo do solo de acordo com o que vc acabou de tocar, e o final tb, de forma q vc possa voltar pra música sem um intervalo grande demais.

    TatuBola
    Veterano
    # jul/03
    · votar


    Primeiro vc acha o tom da musica, depois usa as notas que fazem parte dakele campo harmonico.

    Errol
    Veterano
    # jul/03
    · votar


    Eu uso improvisação sobre escalas pentatõnicas, pego os 5 desenhos da escala e solo encima das notas, descansando na Tônica, terça e quinta.

    Aki estão os cinco desenhos no tom de DÓ:

    Pentatônica 1, Inicia em DÓ:
    
    |------------------------------8-10-|
    |-------------------------8-10------|
    |-------------------7-8-9-----------|
    |--------------7-10-----------------|
    |---------7-10----------------------|
    |-8-10-11---------------------------|

    Pentatônica 2, inicia em RÉ:
    |------------------------------------10-11-12-|
    |------------------------------10-13----------|
    |-------------------------9-12----------------|
    |----------------10-12-13---------------------|
    |----------10-12------------------------------|
    |-10-11-12------------------------------------|

    Pentatônica 3, inicia em MI:
    |-------------------------------------12-15-|
    |----------------------------13-15-16-------|
    |----------------------12-14----------------|
    |-------------12-13-14----------------------|
    |-------12-15-------------------------------|
    |-12-15-------------------------------------|

    Pentatônica 5, inicia em SOL:
    |-------------------------3-5-|
    |-------------------3-4-5-----|
    |---------------2-5-----------|
    |-----------2-5---------------|
    |-----3-5-6-------------------|
    |-3-5-------------------------|

    Pentatônica 6, inicia em LÁ:
    |-------------------------5-8-|
    |---------------------5-8-----|
    |---------------5-7-8---------|
    |-----------5-7---------------|
    |-----5-6-7-------------------|
    |-5-8-------------------------|


    romulo df
    Veterano
    # jan/10
    · votar


    muito obrigado pelas ideias

      Enviar sua resposta para este assunto
              Tablatura   
      Responder tópico na versão original
       

      Tópicos relacionados a Escalas