ajuda nos modos gregos!!!!por favor.....

    Autor Mensagem
    RaFaEl69
    Veterano
    # mai/05


    Aew galera preciso de uma ajuda de vcs!
    Gostaria q alguem me explicasse como c forma os modos gregos e quais são os maiores e os menores e como eu os a uso?? c der pra colokar uns desenhos eu agradeço...
    Valew.......

    guitarist from hell
    Veterano
    # mai/05
    · votar



    MODOS GREGOS(exemplos em G)


    Jônio (G)
    -------------------------------5-7-8-
    -------------------------5-7-8-------
    -------------------4-5-7-------------
    -------------4-5-7-------------------
    -------3-5-7-------------------------
    -3-5-7-------------------------------

    Dório (A)
    --------------------------------7-8-10-
    -------------------------7-8-10--------
    -------------------5-7-9---------------
    -------------5-7-9---------------------
    -------5-7-9---------------------------
    -5-7-8---------------------------------

    Frígio (B)
    -------------------------------------8-10-12-
    -----------------------------8-10-12---------
    ----------------------7-9-11-----------------
    ---------------7-9-10------------------------
    --------7-9-10-------------------------------
    -7-8-10--------------------------------------

    Lídio (C)
    ------------------------------------------10-12-14-
    ---------------------------------10-12-13----------
    -------------------------9-11-12-------------------
    -----------------9-10-12---------------------------
    ---------9-10-12-----------------------------------
    -8-10-12-------------------------------------------

    Mixolídio (D)
    ----------------------------------------------12-14-15-
    -------------------------------------12-13-15----------
    ----------------------------11-12-14-------------------
    -------------------10-12-14----------------------------
    ----------10-12-14-------------------------------------
    -10-12-14----------------------------------------------

    Eólio (E)
    ----------------------------------------------14-15-17-
    -------------------------------------13-15-17----------
    ----------------------------12-14-16-------------------
    -------------------12-14-16----------------------------
    ----------12-14-15-------------------------------------
    -12-14-15----------------------------------------------

    Lócrio (F#)
    ----------------------------------------------15-17-19-
    -------------------------------------15-17-19----------
    ----------------------------14-16-17-------------------
    -------------------14-16-17----------------------------
    ----------14-15-17-------------------------------------
    -14-15-17----------------------------------------------


    Relativas:

    C ---------- Am
    C# --------- A#m
    D ---------- Bm
    D# --------- Cm
    E ---------- C#m
    F ---------- Dm
    F# --------- D#m
    G ---------- Em
    G# --------- Fm
    A ---------- F#m
    A# --------- Gm
    B ---------- G#m


    RaFaEl69
    Veterano
    # mai/05
    · votar


    ai cara valew...mas como eles se formam? quais são os maiores e os menores? como eu uso eles????

    angus junior
    Veterano
    # mai/05
    · votar


    po
    bom tutorial
    parabens ae

    Marisco
    Veterano
    # mai/05
    · votar


    RaFaEl69
    Dá uma lida nessa coluna que eu escrevi:
    http://brasilguitarra.sites.uol.com.br/colunistas/colunista1.htm

    Qquer dúvida posta aqui!

    guitarist from hell
    Veterano
    # mai/05
    · votar


    RaFaEl69
    cara, da uma olhada mais o menos no meiodesse topico
    la ta explicando direitinho ;)

    angus junior
    valeu cara.. o seu tb ta muito bom

    heathcliff
    Veterano
    # mai/05 · Editado por: heathcliff
    · votar


    como c forma os modos gregos

    Imagina a escala maior de Sol. Ela começa no Sol e termina em um Sol uma oitava acima certo? Este é o modo Jônio. Agora imagine esta mesma escala começando da 2ª nota, o Lá, e terminando novamente no Lá. Este é o modo Dórico. Agora imagine denovo esta mesma escala começando da 3ª nota, o Si, e terminando novamente no Si. Este é o modo Frígio. E por aí vai.

    Você vai obter os modos nessa ordem:

    Jônio (Escala maior natural)
    Dórico
    Frígio
    Lídio
    Mixolídio
    Eólio (Escala menor natural)
    Lócrio
    (Aí o Jônio de novo, uma oitava acima, e começa tudo denovo)


    quais são os maiores e os menores

    Lembrando que o que torna o modo menor é o fato de ter uma 3ª menor, e o que torna o modo maior é o fato de ter uma 3ª maior.

    Maiores

    Jônio
    Lídio
    Mixolídio

    Menores

    Dórico
    Frígio
    Eólio
    Lócrio

    como eu os a uso??

    deixo isso pros profi...eu só sei no papel mesmo =[



    c der pra colokar uns desenhos eu agradeço

    o companheiro guitarist from hell já postou aí. Mas é aquela velha história...Aprende os shapes começando de todas as cordas...de trás pra frente...e tbm aprenda começando de todos os dedos...parece difícil mas nem é...


    ***Editado***

    pqp, tinha esquecido do mixolídio, mal aí, já corrigi =/

    RaFaEl69
    Veterano
    # mai/05
    · votar


    aew galera valew mesmo pela ajuda ai hein...
    deixa ver c eu entendi....
    o dorico q o guitarist from hell postou lá em cima de A é o Am né e o frígio é Bm e o Lídio é o Cm tô certo???(c eu tiver errado me corrijam)
    Mais agora vem a parte q me ferra....c eu to tocando uma musica em C Am F G..Como eu posso improvisar usando os modos gregos??

    RaFaEl69
    Veterano
    # mai/05
    · votar


    pô galera ajuda eu ai dinovo.....

    heathcliff
    Veterano
    # mai/05
    · votar


    RaFaEl69

    o dorico q o guitarist from hell postou lá em cima de A é o Am né e o frígio é Bm e o Lídio é o Cm tô certo???(c eu tiver errado me corrijam)

    Não. o modo pode ser menor, mas isso não quer dizer que você pode colocar um "m" depois. Esse "m" é só se o modo for o eólio (menor natural).

    Por exemplo, o modo eólio de Sol, é o Mi, Então você não presisa escrever "E Eólio", vc poe só "Em". Mas se for pra colocar o "m" em todos os modos menores, eu vou chamar um E eólio e um E lócrio de Em, imagina k confusão k ia ser.

    Obs¹: Isso é pra as escalas, agora pra acorde você poe o "m" independente de ser do VI grau eólio, é só ser menor mesmo.

    Obs²: Lídio é maior e não menor.



    c eu to tocando uma musica em C Am F G..Como eu posso improvisar usando os modos gregos??

    Isso é uma base em C certo? é só você analisar os acordes.

    o C é o I grau, portanto jônio
    o Am é o VI grau, portanto eólio
    o F é o IV grau, portanto lídio
    o G é o V grau, portanto mixolídio

    Então você pode começar experimentando os modos correspondentes aos acordes. E na hora de tocar, dê enfase á Tônica (a 1ª nota), a Terça, e a Quinta, procurando usar as restantes como "notas de passagem" (por exemplo, vc vai querer tocar a 3ª e dpois a 5ª, aí vc toca a 3ª, e dpois 4ª rápidão, só pra tipo fazer uma "ponte" pra chegar na 5ª)

    E dpois vc vai fuçando...usar o modo eólio sobre um acorde jônio e vice versa soa mto massa, por exemplo...

    RaFaEl69
    Veterano
    # mai/05 · Editado por: RaFaEl69
    · votar


    heathcliff
    Ai mano valew pela explicação aew...
    Mas aew é o seguinte esses modos q estão ai em cima são padrão para todas notas???
    Tipow....
    Esse é modo jonio de G(Sol Maior)
    Jônio (G)
    -------------------------------5-7-8-
    -------------------------5-7-8-------
    -------------------4-5-7-------------
    -------------4-5-7-------------------
    -------3-5-7-------------------------
    -3-5-7-------------------------------

    Ai se eu qro o modo jonio de C(Dó Maior)é só eu transportar assim:
    -------------------------------10-12-13-
    -------------------------10-12-13-------
    -------------------9-10-12-------------
    -------------9-10-12-------------------
    -------8-10-12-------------------------
    -8-10-12----------------------------
    Será q é isso galera???

    heathcliff
    Veterano
    # mai/05
    · votar


    RaFaEl69

    Sim. vc tá usando os mesmos intervalos só que começando do Dó.

    RaFaEl69
    Veterano
    # mai/05
    · votar


    Aew galera responde ai pá ve c ta certo.....
    por favor preciso ver c ja aprendi...

    RaFaEl69
    Veterano
    # mai/05
    · votar


    heathcliff
    outra duvida e se no caso ei tivesse fazendo uma base de CM7 Am7 F7 G7
    seriam esses mesmo modos q vc me explicou fazendo C Am F G???

    heathcliff
    Veterano
    # mai/05
    · votar


    Sim. Eles vão ter a mesma função.

    RaFaEl69
    Veterano
    # mai/05
    · votar


    Aew galera na moral sem querer pedir muito será q tem como alguns de vcs postar um audio de uma base de C Am F G e um improviso simples usando os modos gregos só pra min ter uma idéia do q é improvisar por favor galera vcs iriam me ajudar mto não só a min mas como outros usuarios do forum q tem essa mesma duvida q eu...
    valew...

    Alex Pires
    Veterano
    # mai/05
    · votar


    Cara acabei de colocar um tópico antigo em que eu coloquei muita coisa falando sobre os modos gregos. Ta na parte de Guitarra - Tópicos Essenciais ou coisa do gênero.

    Lord_Mackenzie
    Veterano
    # mai/05
    · votar


    Usem a busca, tem um monte de tópico aí

      Enviar sua resposta para este assunto
              Tablatura   
      Responder tópico na versão original
       

      Tópicos relacionados a ajuda nos modos gregos!!!!por favor.....