Helloween novo

    Autor Mensagem
    Metal Icarus
    Veterano
    # jun/03


    Olá pessoal.
    Alguém tem alguma tablatura, pode ser txt ou guitar pro, de alguma musica do Rabbit Don't Come Easy? Eu só tenho as do My Song Book: Just A Little Sign e Sun 4 The World Solo. Eu preciso de Never Be A Star. Já tirei o solo, só quero as bases. Se alguém souber a afinação de cada música do cd, ou tiver tablatura de alguma, poste aqui. Obrigado.

    Hellowed
    Veterano
    # jun/03
    · votar


    Cara, geralmente o Helloween usa afinação meio tom abaixo em todas as cordas. Mas não sei nesse novo cd deles.
    Você pode mandar essas tabs que você tem pra mim?
    meu e-mail é hellowed20@hotmail.com

    Obrigado desde já.

    Metal Icarus
    Veterano
    # jun/03
    · votar


    Você tem Guitar Pro 4? elas tão em .gp4, ok?

    Guitar TP
    Veterano
    # jun/03
    · votar


    eu tirei o comecinho de Nothing to Say... eu passei correndo pra tab... mas se vc ouvir a música dá pra entender...


    E||--------------------------|------------------------|
    B||--------------------------|------------------------|
    G||--------------------------|------------------------|
    D||--2----5----4--2----------|--2----------2----------|
    A||--2----5----4--2----------|--2----------2----------|
    E||--0----3----2--0----0--0--|--0----0--0--0----0--0--|



    ------------------------|-------------------|------------------------- --|
    ------------------------|-------------------|------------------------- --|
    --7----------7----------|--7----------------|------------------------- --|
    --7----------7----------|--7----------------|------------------------- --|
    --5----5--5--5----5--5--|--5----------------|--7--5----7-------------- --|
    ------------------------|-------------------|--7--5----7-------------- --|



    -----------------|--------------------------|------------------------- -|
    -----------------|--------------------------|------------------------- -|
    -----------------|--------------------------|------------------------- -|
    --------5--------|--------------------------|------------------------- -|
    --7--5--5--------|-----------5--------------|------------------------- -|
    --7--5-----------|--5--6--7-----7--5--3--5--|--3--0--3--5--3--5--6--5- -|



    ------------------------|-------------------|------------------||
    ------------------------|-------------------|------------------||
    ------------------------|-------------------|------------------||
    --------2--0-------0----|--2----------------|------------------||
    --------2--0--2----0----|--2----------------|------------------||
    --3--3--------2---------|--0----------------|------------------||


    ServeTheServants
    Melhor arranjo
    Prêmio FCC violão 2008
    # jun/03
    · votar


    ei , alguem me informa se eles vem esse ano para o brasil ??

    Guitar TP
    Veterano
    # jun/03
    · votar


    tirei o comecinho de Don't Stop Being Crazy... essa música é muito loca... é uma das minhas preferidas...

    E||--------------------------|----------------------------|
    B||--3h-1--------1h-0--------|--0-------------------------|
    G||--------2-----------2-----|-----2-----2----------------|
    D||--------------------------|----------------------------|
    A||--0--------0-----------0--|--------0-------------------|
    E||--------------------------|----------------------------|

    Qdo eu tiver mais tempo eu tiro o resto... agora eu vou namorar... fui!!!!

    Harvey
    Veterano
    # jun/03
    · votar


    ServeTheServants

    Vi no site de um bar aqui de Porto Alegre que eles vão tocar aqui no dia 11 de setembro. O endereço do site é www.opiniao.com.br

    Metal Icarus
    Veterano
    # jun/03
    · votar


    No dia do atentado terrorista...
    Eles vão vim aqui sim... Olha no www.whiplash.net ou www.weburn.cjb.net que tem as datas. Alé de Porto Alegre eles vem no Rio, São Paulo e Belo Horizonte.
    Hellowed, eu vou te mandar as tabs pra guitar pro... se vc naum tiver guitar pro deleta é só vc naum pegá-las...

    Hellowed
    Veterano
    # jun/03
    · votar


    Você tem Guitar Pro 4? elas tão em .gp4, ok?

    Tenho sim cara. Baixei no kazaa.
    Brigadão por ter mandado.

    Helloweenschieese
    Veterano
    # jan/15
    · votar


    em E, acho. hehehe

    Schenker
    Veterano
    # jan/15
    · votar


    Pá de ouro...fortíssimo candidato.

    Rachmaninoff
    Veterano
    # jan/15
    · votar


    Parabéns ao Helloweenschieese!

    Seu prêmio aqui!

      Enviar sua resposta para este assunto
              Tablatura   
      Responder tópico na versão original
       

      Tópicos relacionados a Helloween novo