Vídeo-Aulas: Tumeni Notes (Morse) e Nothing To Say (Regravada)

Autor Mensagem
Marisco
Veterano
# abr/05 · Editado por: Marisco


Essa do tio Morse é clássica. É a introdução da música, cheia de arpejos. Só que é pra tocar tudo com palhetada alternada. Sweep é proíbido! A tab tem no www.mysongbook.com

Gravei dois takes em velocidade normal. Um de pé e outro sentado. Foi pra mostrar a importância de estudar de pé (vejam que eu perco um pouco de precisão). Quem não toca em banda e está acostumado a tocar só sentado vai sentir muita diferença.

Regravei também a vídeo-aula da Nothing To Say, e dessa vez da pra enxergar tudo, hehee.

Tumeni Notes:
http://s13.yousendit.com/d.aspx?id=0KEDRUEKOP4L112T9VSLGKUP5D

Nothing To Say - Riff:
http://s13.yousendit.com/d.aspx?id=3GDPZIMIW8YYJ3PNK3CFCWG4RZ

Nothing To Say - Solo:
http://s13.yousendit.com/d.aspx?id=2Y1MJMYKWYBXW2FD90ORAV2YF9

pedrobrito
Veterano
# abr/05
· votar


Baixando.

pedrobrito
Veterano
# abr/05
· votar


Tem um arpegio q eh assim:
E ---------------10--7-----------------7--
B -----------------------10-------10------
G ----------------------------9------------

e ce ta fazendo assim:
E ---------------10--7---------------7--
B -----------------------8-------8-------
G ---------------------------7-----------

Eu tenho quase certeza q eh do primeiro jeito.

Jason
Veterano
# abr/05
· votar


vo puxar a original pra depois puxar aqui

Kamelot
Veterano
# abr/05
· votar


Marisco
bem irado cara
qual eh a guitarra, k1 ou k2?

Paul Miander
Veterano
# abr/05
· votar


cara... curti mto ver vc sentando ahahah
mas sério... meio estranho a última nota de cada parte do riff da nothing to say...
aquela q segura...

MatheusMX
Veterano
# abr/05 · Editado por: MatheusMX
· votar


Marisco
boas gravaçoes , execurção mto boa tbm , pow , depois de te ver tocando em pé eu naum acho q a guit fica tão alta em mim ueahuhea , fica soh um pouco mais baixo hehe , ow , vc eh careca ueahuae?

Marisco
Veterano
# abr/05
· votar


pedrobrito
Experimentei desse teu jeito ae, mas o som fico sinistro o_O

Jason
Fala sério tche! Se quiser me comparar com o Morse vai tomar porrada!

Kamelot
É a K2!

Paul Miander
Imagina se não ia ter um engraçadinho... Que nota que ficou estranha? (no riff lento ou rápido)

EduArdanuy
Po cara, mais baixo que isso é só pra tocar Punk...
Não sou careca não, só tenho o cabelo raspado (po, to tão acabado assim?)

Paul Miander
Veterano
# abr/05
· votar


Marisco
cara... se é engraçadinho... tá bom o PERFEITÃO!
eu disse q tá estranho é pq tá... na rápida... a nota q vc para, vc dá um bend ou sei lá oq vc faz q tá meio estranho, q no original não é assim!
só isso! naum precisa estressar, tô falando pq realmente tá...
A única nota q vc segura mais! acho q é um RE.... lá na quinta casa da LA... acho q era isso!
tenta assistir lá e entender o q eu disse

Urubu Rei
Veterano
# abr/05
· votar


Paul Miander

toca tumeni notes ae cara

pra quem toca os solos de malmsteen isso daih deve ser fichinha.

Marisco
Veterano
# abr/05
· votar


Paul Miander
Te acalma rapaz. Eu não falei "engraçadinho" por causa disso...
Eu falei isso pq tu disse que "gostou de me ver sentando"...
Longe de mim querer me achar perfeito. Tá tudo bem meia boca mesmo. Mas voltando ao ponto em questão: não é um bend, e sim um vibrato mais exagerado...

guitargod
Veterano
# abr/05
· votar


Fico legal!
Esses arpejos com alternada são bem complicados mesmo, é muito fácil de se confundir, mas fico muito bom!

naka
Veterano
# abr/05
· votar


Marisco
Tunemi ta errada cara :-(
mas essa parte é ficinha perto da segunda ^^

Marisco
Veterano
# abr/05
· votar


guitargod
Realmente! Quem tá acostumado a fazer com sweep (eu, por exemplo) acaba apanhando na hora de tocar dessa forma!

naka
Posta ela certa então!
E realmente, a segunda parte é muito foda!

Alan_Domingues
Veterano
# abr/05
· votar


O pessoal não sabe se expressar né.

Tipo, Marisco. A intro tem arpejos errados. Acho que a galera não soube falar isso direito sei lá.


E||------------------8--10--11--|--12--8-------------7--10--7--------- ---7--|
B||--------------10-------------|---------10-----10------------9------ 9-----|
G||-----------------------------|-------------9-------------------10-- ------|
D||-----------------------------|------------------------------------- ------|
A||-----------------------------|------------------------------------- ------|
E||-----------------------------|------------------------------------- ------|



--8--5-----------5--7--3-----------3--|--5--1--------3--1--------5--1- -------|
--------5-----5-----------3-----3-----|--------1--1--------1--1------- -1--1--|
-----------5-----------------4--------|------------------------------- -------|
--------------------------------------|------------------------------- -------|
--------------------------------------|------------------------------- -------|
--------------------------------------|------------------------------- -------|



--8--5-----------5-------------8--10--11--|
--------7-----7-----8--10--12-------------|
-----------8------------------------------|
------------------------------------------|
------------------------------------------|
------------------------------------------|



--12--8-------------7--10--7------------7--|
---------10-----10------------9------9-----|
-------------9-------------------10--------|
-------------------------------------------|
-------------------------------------------|
-------------------------------------------|



--8--5-----------5--13--8--------------8--|
--------6-----6------------10------10-----|
-----------5-------------------10---------|
------------------------------------------|
------------------------------------------|
------------------------------------------|



--12--8--------10--8--------12--8--------|
---------8--8---------8--8---------8--8--|
-----------------------------------------|
-----------------------------------------|
-----------------------------------------|
-----------------------------------------|



--13--10----------15--10----------13--10----------|
----------10--10----------10--10----------10--10--|
--------------------------------------------------|
--------------------------------------------------|
--------------------------------------------------|
--------------------------------------------------|



--12--8-------------7--10--7------------7--|
---------10-----10------------9------9-----|
-------------9-------------------10--------|
-------------------------------------------|
-------------------------------------------|
-------------------------------------------|



--8--5-----------5--7--3-----------3--|--5--1--------3--1--------5--1- -------|
--------5-----5-----------3-----3-----|--------1--1--------1--1------- -1--1--|
-----------5-----------------4--------|------------------------------- -------|
--------------------------------------|------------------------------- -------|
--------------------------------------|------------------------------- -------|
--------------------------------------|------------------------------- -------|



--8--5-----------5-------------8--10--11--|
--------7-----7-----8--10--12-------------|
-----------8------------------------------|
------------------------------------------|
------------------------------------------|
------------------------------------------|



--12--8-------------7--10--7------------7--|
---------10-----10------------9------9-----|
-------------9-------------------10--------|
-------------------------------------------|
-------------------------------------------|
-------------------------------------------|



--8--5-----------5--13--8--------------8--|
--------6-----6------------10------10-----|
-----------5-------------------10---------|
------------------------------------------|
------------------------------------------|
------------------------------------------|



--12--8--------10--8--------12--8--------|
---------8--8---------8--8---------8--8--|
-----------------------------------------|
-----------------------------------------|
-----------------------------------------|
-----------------------------------------|



--13--10----------15--10----------16--12----------|--16~-------------- -|
----------10--10----------10--10----------12--12--|------------------- -|
--------------------------------------------------|------------------- -|
--------------------------------------------------|------------------- -|
--------------------------------------------------|------------------- -|
--------------------------------------------------|------------------- -|



Esta parte aqui que realmente é muito difícil de fazer porque é tudo palhetada alternada com palm mute.
------------------||----------------------------------------------|
------------------||----------------------------------------------|
------------------||*-------------10--------------------7---------|
------------------||*---------10------10-------------9-----9------|
------------------||------10--------------10-----10-----------10--|
------------------||---8----------------------8-------------------|



------------------------------------------|
------------------------------------------|
-------------9------------7------------7--|
---------10------------9-----9------9-----|
-----10------------10-----------10--------|
--8-------------8-------------------------|



--------------------------------------|------------------------------- -------|
--------------------------------------|------------------------------- -------|
-----------5-----------------4--------|-----------7-----------------0- -------|
--------7-----7-----------5-----5-----|--------7-----7-----------2---- -2-----|
-----7-----------7-----7-----------7--|-----7-----------7-----2------- ----2--|
--5-----------------5-----------------|--5-----------------0---------- -------|



--------------------------------------|
--------------------------------------|
-----------2-----------2-----------4--|
--------3-----------4-----------5-----|
-----3-----------5-----------5--------|
--1-----------2-----------3-----------|



----------------------------------------||------------------|
----------------------------------------||------------------|
-----------4-----------6------------7--*||------------------|
--------6-----------7------------9-----*||------------------|
-----7-----------7-----------10---------||------------------|
--4-----------5-----------7-------------||------------------|


Paul Miander
Veterano
# abr/05
· votar


Urubu Rei
Nem é cara, com certeza tocar isso ae em alternada é mais foda que os clichezões do gordo!

Marisco
Ah bom... achei q vc disse que eu tava falando isso só pra encher o saco! então blz!
pq vc viu? realmente tá estranho! só pra alertar mesmo!
Do resto tá bem dahora

Marisco
Veterano
# abr/05
· votar


Alan_Domingues
Por essa tua tab tem dois arpejos diferentes. Um que eu faço "maior" e na tua é "diminuto" e outro que eu faço "m7" e na tua é "dim" tb. Mas eu tenho um vídeo dele tocando que me parece maior o primeiro. O segundo é dificil dizer, pq a digitação muda só uma nota...

Paul Miander
Blz cara, sem stress!

Marco_Uber_Alles
Veterano
# abr/05
· votar


Paul Miander

grava um Morse em 10 segundos ae

marcpires
Veterano
# abr/05
· votar


Marisco me adiciona no teu msn preciso falar contigo marc_762@hotmail.com

Alan Matos
Veterano
# abr/05
· votar


Marisco

Parabéns Marisco, muito bom mesmo. A única coisa é que realmente os dois arpejos são diminutos mesmo. Mas tá de parabéns.

Hocus Pocus
Veterano
# abr/05
· votar


Po cara, mais baixo que isso é só pra tocar Punk...
e o paul gilbert??? e o dimebag darrel??? e o zakk wylde??? um era do ramones, o otro do sex pistols e o otro do The Clash neh ¬¬ euhehuehuhue
mas enfim parabens pelas gravações ai uhuhhu

Paul Miander
Veterano
# abr/05
· votar


Marco_Uber_Alles
Morse naum dá... o morse é bom, criativo e bem mais variado!

Alan411
Veterano
# abr/05
· votar


gostei da tumeni notes....:-)

Tiao_Macalé
Veterano
# abr/05
· votar


Muito boas marisco. Tenta botar Nova Era agora. Vou tentar abrir os espaço lá de 12MB e te aviso. Abraços!

Marco_Uber_Alles
Veterano
# abr/05
· votar


Paul Miander
:D

Jason
Veterano
# abr/05
· votar


Marisco
hahahaha calmae doido, vo comparar não!!
eh q eu nunca tinha ouvido ela e queria puxar pra ver como seria e tal.
po, eu gostei, tocar arpejo nessa velocidade e com alternada é muito complicada.
agora, c o arpejo ta errado eu nem sei pq ainda nem acostumei com a musica e tal, mas ta de parabens velho!!

Drinho
Veterano
# abr/05
· votar


Marisco

mto loko kra !
parabens !

MatheusMX
Veterano
# abr/05
· votar


Marisco
o careca foi soh curiosidade msmo hehe , mas o careca Satriani ruleia mto

Marisco
Veterano
# abr/05
· votar


Alan Matos
Valeu ae tio Alan!
Já corrigi os arpejos :P

Hocus Pocus
Po, mas os caras devem fazer duas horas de alongamento por dia! Eu com essa minha grande flexibilidade to quase virando guitarrista de baile...

Tiao_Macalé
To no aguardo!

Jason
Drinho
Valeu ae gurizada!

EduArdanuy
É, mas o Satch já foi cabeludão!

Bily
Veterano
# mai/05
· votar


Pq essa musik demoniaca eh tokada com palhetada alternada??

Enviar sua resposta para este assunto
        Tablatura   
Responder tópico na versão original
 

Tópicos relacionados a Vídeo-Aulas: Tumeni Notes (Morse) e Nothing To Say (Regravada)