eskla + dificil

    Autor Mensagem
    Yngwie Johann Malmsteen
    Veterano
    # jun/03


    eskla + dificil q vcs conhecem..... botem a tab aqui..

    nIgHtWoLf
    Veterano
    # jun/03
    · votar


    Nao é que seja dificil, mas as diminutas em geral tem uma digitação longa

    The True Master of War
    Veterano
    # jun/03
    · votar


    ESCALA É ESCALA PORRA
    NÃO É DIFICIL AUHHUAUHAUHAHUA
    VO COLOCAR A MONSTER SCALE AE

    [tab]
    --------------------------------------------------
    ----- -----------------------------------etc-------
    ----------------------- -------1--7--12------------
    ---------------------1--7--12------------ ---------
    -----------1--7--12-------------------------------
    -1--7-- 12-----------------------------------------


    AHUAHUHUAHUAUH FAZ AE

    The True Master of War
    Veterano
    # jun/03
    · votar


    A PORRA
    O [TAB] NAO FUNCIONOU
    AI MEU DEUS
    !!!!!!!!!!!!!!!!!!!!!!!!
    PORRA!
    VC ENTENDEM NÉ???
    ERA PRA SER TAB
    OK?
    BLZ

    Yngwie Johann Malmsteen
    Veterano
    # jun/03
    · votar


    vcs jah tentaram fazer a "gipsy"?eh foda!

    Iron_Ata_Man
    Veterano
    # jun/03
    · votar


    como é essa "gipsy"? larga uma tab aí!

    Yngwie Johann Malmsteen
    Veterano
    # jun/03
    · votar


    eu naum sei bota tab aqui ..... c eu soubesse eu botaria...

    Iron_Ata_Man
    Veterano
    # jun/03
    · votar


    faz como o The True Master of War, ou entao só diz as notas q entram, ou ainda usa akele eskema d colocar só em numeros, onde o 1ºnumero é a corda e o 2º a casa... tipo
    47, 4ª corda, 7ª casa, ou seja, um A

    valeu

    caíto
    Veterano
    # jun/03
    · votar


    diminuta é a que deu mais trabalho preu pegar...

    caíto
    Veterano
    # jun/03
    · votar


    Quando os intervalos da diminuta são grandes, aí é que fode tudo...

    Lauro
    Veterano
    # jun/03
    · votar


    diminuta eu ate acehi fassiu o problema para mim foi decorar as gregas

    yvo
    Veterano
    # jun/03
    · votar


    olha eu tenho uma guitar class com uma materia do hugo mariutti q mostra o desenho da gypsy 7+ , vo posta aki:

    ----------------------------------5--6--9---------------------------- ------------------5--6--8--------------------------------------------- ----6--7-------------------------------------------------5--7--8------ ----------------------------------------5--7--8----------------------- -----------------------5--6--9---------------------------------------- -----------


    yvo
    Veterano
    # jun/03
    · votar


    nossa eu nao seimermo mexe nessa porra de botaosinho TAB
    vo faze da forma mais simples:

    65 66 69 55 57 58 45 47 48 36 37 25 26 28 15 16 19

    yvo
    Veterano
    # jun/03
    · votar


    lembrando q essa eh a gypsy 7+, a normal eu nao sei nao

    GuitarHouse
    Veterano
    # jun/03
    · votar


    The True Master of War


    pra q dificultar.

    na sua escala q vc mostrou lah em cima, as 3 primeiras notas sao o mesmo q:



    G--------2
    A|---2--2
    D|--2--1
    E|-1


    assim por diante..hehe


    Sobre a Gypsy(escala cigana)
    Em A: A A# C D E F# G

    uma pattern dela de 4 casas poderia ser:

    e|------------------------5-6
    B|------------------5-7-8----
    G|--------------6-7----------
    D|--------5-7-8--------------
    A|----5-7--------------------
    E|5-6------------------------


    Yngwie Johann Malmsteen
    Veterano
    # jun/03
    · votar


    façam a escala maior eh assim
    68 610 612 58 510 512 49 410 412 39 310 312 28 210 212 19 110 112
    entenderam?

    Yngwie Johann Malmsteen
    Veterano
    # jun/03
    · votar


    ei yvo eu tenho esta guitar class e a q tem a transcriçaum da musica "I am Viking" do yngwie malmsteen..... naum eh?

      Enviar sua resposta para este assunto
              Tablatura   
      Responder tópico na versão original
       

      Tópicos relacionados a eskla + dificil