>> Alguém ajuda aeeeeee <<

    Autor Mensagem
    Yan Vai
    Veterano
    # fev/05


    Ae alguém que já da aulas de guitarra aqui nesse forum poderia colocar exercicios concretos para exercitar os 4 dedos na guitarra? Eu andei seguindo as dicas de geral aqui do forum, mais eu preciso de musicas simples para começar a treinar.Alguém que tem um grau de musica alta poderia me ajudar? (já tentei os exercícios 1,2,3,4 e etc..)

    prog_jam
    Veterano
    # fev/05
    · votar


    1234, além de básico, é eterno. continue praticando os patterns com e sem saltos de trastes e cordas e depois estude escalas, mas com cuidado ´para não bitolar.
    abç

    MatheusMX
    Veterano
    # fev/05
    · votar


    eu naum dou aulas , posso te indicar um exercício q pode ajudar ...
    *fazer com palhetada alternada

    e---------|--------|---------|--------|--------|---------
    B---------|--------|---------|--------|--------|---------
    G---------|--------|---------|--------|-------7|-------10
    D---------|-------7|--------9|----7-10|-----9--|---7-10--
    A-----7-10|-----8--|---7-10--|7-8-----|9-10----|11-------
    E-7-8-----|9-10----|11-------|--------|--------|---------


    e---------|--------|----------|------7|--------8|----7-10
    B---------|-------8|--------10|----8--|-----10--|7-8-----
    G-----7-10|-----9--|---7-10---|8-9----|9-10-----|--------
    D-8-9-----|9-10----|11--------|-------|---------|--------
    A---------|--------|----------|-------|---------|--------
    E---------|--------|----------|-------|---------|--------


    prog_jam
    Veterano
    # fev/05
    · votar


    EduArdanuy
    se me permite:

    e---------|--------|---------|--------|--------|---------
    
    B---------|--------|---------|--------|--------|---------
    G---------|--------|---------|--------|-------7|-------10
    D---------|-------7|--------9|----7-10|-----9--|---7-10--
    A-----7-10|-----8--|---7-10--|7-8-----|9-10----|11-------
    E-7-8-----|9-10----|11-------|--------|--------|---------







    e---------|--------|----------|------7|--------8|----7-10
    
    B---------|-------8|--------10|----8--|-----10--|7-8-----
    G-----7-10|-----9--|---7-10---|8-9----|9-10-----|--------
    D-8-9-----|9-10----|11--------|-------|---------|--------
    A---------|--------|----------|-------|---------|--------
    E---------|--------|----------|-------|---------|--------


    MatheusMX
    Veterano
    # fev/05
    · votar


    prog_jam
    blz , tava junto mesmo ...

    ghb
    Veterano
    # fev/05
    · votar


    faz umas cromáticas com salto de corda

    e--------------------------------------4321----------------
    B--------------------------4321----------------------------
    G----------------4321------------4321--------------
    D------4321-----------4321-------------------
    A------------4321-------------------------------------
    E-4321-----------------------------------------------------

    É bom pra treinar e palheta (eu achw)

    ghb
    Veterano
    # fev/05
    · votar


    DEPOIS É SÓ JOGAR UM WAH!!!!!!!!!!!!!

      Enviar sua resposta para este assunto
              Tablatura   
      Responder tópico na versão original
       

      Tópicos relacionados a >> Alguém ajuda aeeeeee <<