Rebirth , uma duvida

    Autor Mensagem
    wesleyw8
    Veterano
    # jan/05


    eu to tirando o bitencourt do rebirth, a parte do violao jah consegui faiz tempo

    sabe a parte q ele sobe na escala?????
    mais soh q eu naum consigo fazer na mesma velocidade do cd, eu acho q eh pq eu to fazendo com os dedos errados pq



    1 1 2 1
    e----12---12-13-12-------------------------------------------
    4 4 2 1 1 4 1
    B-15--------------15-13-12--------10-13----10----------------
    3 1 4 3 4 2 1 2
    G-------------------------14-12-14-------12----12-10-9-10----

    D------------------------------------------------------------
    A------------------------------------------------------------
    E------------------------------------------------------------




    obs (pra quem naum entendeu : esses 1 , 2 , 3 , 4 sao os dedos da mao eskerda q fazem a escala

    spacegh0st
    Veterano
    # jan/05 · Editado por: spacegh0st
    · votar


    cara a tab ficou muito desorganizada, coloca assim (isso é só exemplo)


    1 2 3 4 1 2 3 4 1 2 3 4
    e--5-6-7-8---------------------------------------------
    B----------5-6-7-8-------------------------------------
    G------------------5-6-7-8-----------------------------
    D------------------------------------------------------
    A------------------------------------------------------
    E------------------------------------------------------


    eu toco esse solo, tem muito mistério nao...
    vc vai fazer o seguinte:
    tocar ele bem lento, deixando as notas bem limpinhas
    se vc achar que ficou certinho, toca denovo, só que um pouco mais rápido... se nao sair direito, treina bastante até ficar bom pra vc poder aumentar a velocidade denovo... qdo vc for ver já vai tar tocando na velocidade certa sem problemas, é só ter paciencia..
    falous!

    wesleyw8
    Veterano
    # jan/05
    · votar



    4 1 1 1 1 4 2 1 3 1 4 1 4 3 1 4 2 1 2
    e----12--12-13-12---------------------------------------
    B-15--------------15-13-12--------10-13--10-------------
    G-------------------------14-12-14-----12----12-10-9-10-
    --------------------------------------------------------
    A-------------------------------------------------------
    E-------------------------------------------------------


    marcio_zav
    Veterano
    # jan/05
    · votar



    E||-10--12--12h13h12h10---------------------------------------||
    B||---------------------13h12-10----10-13h10----10------------||
    G||------------------------------12----------12----12h10h9h10-||
    D||-----------------------------------------------------------||
    A||-----------------------------------------------------------||
    E||-----------------------------------------------------------||

    acho q assim fica mais facil.....teta ae

    wesleyw8
    Veterano
    # jan/05
    · votar


    mais isso dah na mesma?

    marcio_zav
    Veterano
    # jan/05
    · votar


    eh a msm coisa, soh muda a "posicao" das notas no braco.......

    wesleyw8
    Veterano
    # jan/05
    · votar


    mais e os dedos ?

    vc naum tem msn?

    wesleyw8
    Veterano
    # jan/05
    · votar


    ???????????

    John Johns
    Veterano
    # jan/05
    · votar



    4 1 1 2 1 4 2 1 3 1 4 1 4 3 1 4 2 1 2
    e----12--12-13-12---------------------------------------
    B-15--------------15-13-12--------10-13--10-------------
    G-------------------------14-12-14-----12----12-10-9-10-
    --------------------------------------------------------
    A-------------------------------------------------------
    E-------------------------------------------------------


    agora sim

    John Johns
    Veterano
    # jan/05
    · votar


    OPS! Fiz errado... Toca como o marcio_zav disse

    wesleyw8
    Veterano
    # jan/05
    · votar


    4 1 1 2 1 4 2 1 3 1 4 1 4 3 1 4 2 1 2
    e----12--12-13-12---------------------------------------
    B-15--------------15-13-12--------10-13--10-------------
    G-------------------------14-12-14-----12----12-10-9-10-
    --------------------------------------------------------
    A-------------------------------------------------------
    E-------------------------------------------------------



    agora sim


    eu tava fazendo desse jeitinho....e naum consegui

    mais eu vou fazer a do marcio intaum

    wesleyw8
    Veterano
    # jan/05
    · votar


    ,

      Enviar sua resposta para este assunto
              Tablatura   
      Responder tópico na versão original
       

      Tópicos relacionados a Rebirth , uma duvida