tab da intro da rebirth - angra

    Autor Mensagem
    xMETAL_WARRIORx
    Veterano
    # jan/03


        Am               Am7/G      Em     F          G      Am
    
    e|--------0-----------------------------------------------------0--------| R
    B|------1---3--------------1-0--------------------------------1-----1----|\ E
    G|----2------------2-----0-------------------2-0------------2-----2---2--| P
    D|---------------0-----2------------2------3----------5---2--------------| E
    A|--0-----------------------------2------3----------5---0----------------|/ T
    E|-------------2-----3----------0------1----------3----------------------| E

    Dm C G/B
    e|-------1-----0----------0------1---0-----------------2-----|
    B|-----3-----3-----3--------3--------------3---1------2------|
    G|---2-----2-----2---2--------2----2---0----0---0---0--------| fim da primeira
    D|-0---------0---------0-----------------2---2---------------| parte
    A|-----------------------------------3---3--------2----------|
    E|-----------------------------------------------------------|


    joao balao
    Veterano
    # jan/03
    · votar


    essa intro é muito legal, foi essa música que fez eu começar a gostar deles.

    xMETAL_WARRIORx
    Veterano
    # jan/03
    · votar


    eu ja gostava desde o cd do angels cry
    a carry on me fez gostar deles

    STR4NG3R
    Veterano
    # jan/03
    · votar


    carry on domina

    Filipe
    Veterano
    # jan/03
    · votar


    Angra é a melhor e pronto , a nova formção naun deixou nada a dever

    xMETAL_WARRIORx
    Veterano
    # jan/03
    · votar


    eh ta mto loco! melhor q antes

      Enviar sua resposta para este assunto
              Tablatura   
      Responder tópico na versão original
       

      Tópicos relacionados a tab da intro da rebirth - angra