Alguem Poderia Me Passar algum solinho?

    Autor Mensagem
    zinhoADP
    Veterano
    # jan/05


    Alguem Poderia Me Passar algum solinho?

    Yuri Emmanuel
    Veterano
    # jan/05
    · votar


    E|--------------------------|--------------------------|
    B|--------------------------|--------------------------|
    G|--------------------------|--------------------------|
    D|--2---2-2---5----8-7-5----|--2---2-2---8--8-8-8------|
    A|--2---2-2---5----8-7-5----|--2---2-2---8--8-8-8------|
    E|--0---0-0---3----6-5-3----|--0---0-0---6--6-6-6------|

    E|--------------------------|--------------------------|
    B|--------------------------|--------------------------|
    G|--------------------------|--------------------------|
    D|--2---2-2---5----8-7-5----|--2---2-2---3--3-3-3------|
    A|--2---2-2---5----8-7-5----|--2---2-2---3--3-3-3------|
    E|--0---0-0---3----6-5-3----|--0---0-0---1--1-1-1------|

    Alexandre Souza
    Veterano
    # jan/05
    · votar


    zinhoADP
    baixa o guitar pro e pega os arquivos dos solos que vc quiser

    http://213.246.36.227/slkjeigjsl/GP410FULL_EN.EXE
    USER ID= AROB806664 KEY ID= 37895-99548-05000

    Paulo Feresin
    Veterano
    # jan/05
    · votar


    Yuri Emmanuel

    isso num é solo hehehe =P

    zinhoADP

    q tipo de solo?

    slash_sp
    Veterano
    # jan/05
    · votar


    Yuri Emmanuel
    como se e burro cara isso nao e um solo!

    Rodrigo rvssvr
    Veterano
    # jan/05
    · votar


      t     t t t  t t 
    
    e----0-----1-2-3-10-1-------t--------------------1-------
    B------1-----------------1-22--------8b-------1---5--2---1--
    G--------2-3---------------------8-------1---------6-----
    D------------2-3-5-5---------------------8*--9*--------6-
    A----5-10--------------2----------------------5------0-3--
    E--5-------------------0-0-0-0-00-0*-0-0-0-00*-----2------
    Em#7(13)7

    Reinaldo Camargo Filho
    Veterano
    # jan/05
    · votar


    Rodrigo rvssvr

    Esse ta bem stanley jordan, só que com umas notas feias pra dedeu.

    guitarist from hell
    Veterano
    # jan/05
    · votar



    e------------------------------------------------------
    B-12-12-13-13-12--12--12-10-12-13-10-------------------
    G------------------------------------------------------
    D------------------------------------------------------
    A------------------------------------------------------
    E------------------------------------------------------


    racionais - capitulo 1V versiculo III

    Reinaldo Camargo Filho
    Veterano
    # jan/05
    · votar


    guitarist from hell

    Uma vez eu consegui tocar Diario de um Detento palhetando as cordas na parte em que elas ficam no headstock, isso no meu violão antigo e só dava as vezes, toda vez que eu reafinava o som ficava diferente.

    buiudoADP
    Veterano
    # jan/05
    · votar


    Tipo eu queria solinhos para eu começar a brincar entende?

    Joe Satriani
    Veterano
    # jan/05
    · votar


    isso ae e música de punk aehueahaue

    maggie
    Veterana
    # jan/05
    · votar


    zinhoADP
    Baixa o Guitar Pro que o Alexandre Souza passou e entra no site
    http://www.mysongbook.com/

    Xander
    Veterano
    # jan/05
    · votar


    e vira maxo porra solinho q coisa gay orra

    felipecrepaldi
    Veterano
    # jan/05
    · votar


    VIRA HOMEM MANO Q PORRA DE SOLINHO ISSO EH COISA DE GAYYYYY

      Enviar sua resposta para este assunto
              Tablatura   
      Responder tópico na versão original
       

      Tópicos relacionados a Alguem Poderia Me Passar algum solinho?