Tablatura - Solo - Mother - Pink Floyd

    Autor Mensagem
    Teimoso
    Veterano
    # out/04


    Alguém sabe esse tipo de notação de tablatura
    ~O que siginifica;
    -- 13>(14)
    --13>(14)>13>12
    10>(12)=======>10--8--10>(13)


    ---------------------------------------------------------------------- ---------
    ------13>(14)----13>(14)>13>12---------------------------------------- ---------
    --12-----------------------------14>13>14----------------------------- ---------
    --------------------------------------------------5------5--4--------- ---------
    --------------------------------------------2/7-------7--------5---3>2 --3vvv---
    ---------------------------------------------------------------------- ---------


    -------------------------------------------------------12>(14)==>12>10 ----
    -------10>(12)=======>10--8--10>(13)---8------------x----------------- ----
    --2/7--------------------------------------9>8>9--x------------------- ----
    ---------------------------------------------------------------------- ----
    ---------------------------------------------------------------------- ----
    ---------------------------------------------------------------------- ----


    ---------10>(12)==>10>8--8>7--8>7----------------------------------
    -----x-----------------------------8-------------------------------
    --x------------------------------------7---6---4-------------------
    ---------------------------------------------------5vvvvv\---------
    -------------------------------------------------------------------
    -------------------------------------------------------------------


    Lodewijk
    Veterano
    # out/04
    · votar


    Teimoso
    olha.. nao conheço a musica.. mas pelo andar da tab.. parece slide.. mas teria q ouvir o solo.. agora nao tenho nem como pq to no trampo.. msa acho q é slide

    Teimoso
    Veterano
    # out/04
    · votar


    Lodewijk

    Aí assim q vc puder eu agradeço,
    Já fiz varias buscas pela net e não encontrei nada a respeito deste tipo de notção de tablatura.

    Hard_Liquor
    Veterano
    # mai/05
    · votar


    O que está entre parênteses é bend, ou seja, vc toca do e dá o bend até do#, deu pra entender???

      Enviar sua resposta para este assunto
              Tablatura   
      Responder tópico na versão original
       

      Tópicos relacionados a Tablatura - Solo - Mother - Pink Floyd