Deep Purple- Burn

Autor Mensagem
John Johns
Veterano
# set/04


eae caras,

um dia desses, catei meu song book do Deep Purple com a partitura do Burn...
Porém o riff era mais bizarro que o Manson, e gostaria que alguem me explicasse esse maldito riff histórico

henriquec
Veterano
# set/04
· votar


bizarro? maldito? .. nem vo comentar

FDG
Veterano
# set/04
· votar


avemos Blackmore,os riffs desse cara são uma loucura,são criativos,desde simples bicordes até coisas malucas saem da guitarra dele,não é a toa que os riffs dele são históricos

Claudio Natureza
Veterano
# set/04
· votar


eu tenho um videozinho dele com roupa de bruxo, de 1970, muito louco.

THE WALL
Veterano
# set/04
· votar


Os riffs de Blackmore são bem criativos mesmo...
Bom, pra mim o melhor é Black Night... Eu amo tocar o riff e as pessoas q tao curtindo fazer o coral hehehehe...


flws

BlaCk LaBeL
Veterano
# set/04
· votar


Eita! O que tem de bizarro no riff de Burn?!?

felipe_sp
Veterano
# set/04
· votar


Eita! O que tem de bizarro no riff de Burn?!? (2)

Zadh
Veterano
# set/04
· votar


Bizarro?

Hansen
Veterano
# set/04
· votar


Bizarro? puta aula de rock and Roll... só esse riff botou todos do Jimmi Page no chinelo

henriquec
Veterano
# set/04
· votar


ainda bem q tem muita gente q concorda comigo

John Johns
Veterano
# set/04
· votar


o cara o deda é um maldiçao, vo tenta mostra pra vcs:


E||------------------------|-----------------------|------------------ ------|----------------------|
B||------------------------|-----------------------|------------------ ------|----------------------|
G||-----3/-2--0--5---------|--3/-2--0--5------3----|-----3/-2--0--5~-- ------|--3/-2--0-------------|
D||-----3/-2--0--5---------|--3/-2--0--5------3----|-----3/-2--0--5~-- ------|--3/-2--0--3----------|
A||------------------------|-----------------------|------------------ ------|-----------3----------|
E||--3------------------3--|-----------------------|--3--------------- ---3--|----------------------|



---------------------------||
---------------------------||
-----3/-2--0--5------------||
-----3/-2--0--5------------||
---------------------------||
--3------------------------||


John Johns
Veterano
# set/04
· votar


o cara tem q ter 6 dedos pra fazer isso!

BlaCk LaBeL
Veterano
# set/04
· votar


John Johns
Nada a ver... fica bem fácil se você usar o dedão pra apertar a terceira casa, na sexta corda. Daí, usa o indicador (dedo 1) para tocar as partes nas casas 2 e 3 e o anular (dedo 3) para tocar as partes na quinta casa. Sacou?

Mr Gibson
Veterano
# set/04
· votar


John Johns
É só treinar que o riff sai, cara. No começo eu também achei foda, demorei pra tocar isso decentemente.
Eu uso o dedo médio pra tocar a 3ª casa da 6ª corda, o dedo 1 para a parte das casas 2 e 3, e o dedo 4 para as partes da 5ª casa.
Burn é genial! Desde o riff inicial até a parte do solo com palhetada em semicolcheia e corda solta (só fui tocar isso certo dois meses atrás...)

John Johns
Veterano
# set/04
· votar


vlw!!


obs;. descobri meu erro : minha mao eh mto pequena

Harvey
Veterano
# set/04
· votar


John Johns
descobri meu erro : minha mao eh mto pequena

sofro do mesmo mal.. hehehehe... mas nada que não se resolva praticando. aliás, o bom disso é que dá pra desenvolver o mindinho. não seria nada sem ele. em muitas frases em que se usa o anelar, eu tenho de usar o mindinho pq o anelar não chega.. hehehe...

FDG
Veterano
# set/04
· votar


descobri meu erro : minha mao eh mto pequena

hehe,mas isso não desmereçe o guitarrista,se o cara treina muito consegue desenvolver uma boa técnica mesmo sem conseguir tocar a casa 1 e 6 ao mesmo tempo

minha mão também é

Rafael Guitar
Veterano
# out/04
· votar


ae pessoal dá pra tocar assim tb

no lugaro do E---3------- vcs tocam

e------------------------------------------------------
B------------------------------------------------------
G--0-3s2-0-5-------------------------------------------
D--0-3s2-0-5------------------------------------------
A-----------------------------------------------------
E------------------------------------------------------

entenderam? no lugar so G (casa 3 na mizona) pro pessoal q disse q tem dedo pekeno toca o G de outro jeito batendo nas cordas G e D(assim forando a nota G tb...)

Dica pro pessoal da mão pikena(rsrsrs) Na guitarra se pode fazer mtos acordes de maneiras diferentes... tentem explorar mais o braço e a escala da guitarra, substituam notas pelas quais ficam melhor pra vcs...Não se prendam mto a tablatura...blz?

duvidas minerim_sp@hotmail.com

Rafael Guitar
Veterano
# out/04
· votar


ae pessoal dá pra tocar assim tb

no lugaro do E---3------- vcs tocam

e------------------------------------------------------
B------------------------------------------------------
G--0-3s2-0-5-------------------------------------------
D--0-3s2-0-5------------------------------------------
A-----------------------------------------------------
E------------------------------------------------------

entenderam? no lugar so G (casa 3 na mizona) pro pessoal q disse q tem dedo pekeno toca o G de outro jeito batendo nas cordas G e D(assim forando a nota G tb...)

Dica pro pessoal da mão pikena(rsrsrs) Na guitarra se pode fazer mtos acordes de maneiras diferentes... tentem explorar mais o braço e a escala da guitarra, substituam notas pelas quais ficam melhor pra vcs...Não se prendam mto a tablatura...blz?

duvidas minerim_sp@hotmail.com

Igor Martins
Veterano
# out/04
· votar


John Johns

Tah blz esse teu

Mas a manha é deixar o polegar na corda mi (a 6a)
o blackmore faz isso parece, bem mais facil assim

misercast
Veterano
# out/04
· votar


sem usar o polegar fica dificil de tocar burn

John Johns
Veterano
# jul/05
· votar


Ae bicho! Meu primeiro tópico!!

LOW Fl
Veterano
# jul/05
· votar


John Johns
Aprendeu a fazer o riff pelo menos

John Johns
Veterano
# jul/05
· votar


LOW Fl

Claro, bicho.

maniac123
Veterano
# jul/05
· votar


John Johns

eu tenho ela comentada, saiu na cover guitarra... se quiser eu scaneio proce...

John Johns
Veterano
# jul/05
· votar


maniac123

ok! Valeu, cara.

heathcliff
Veterano
# jul/05
· votar


isso é fácil cara...

o sol na 6ª corda você faz com o dedo 2 e o primeiro double-stop embaixo vc faz com pestana no dedo 1, um slide pra casa 2 e por aí vai

tenta aí

maniac123
Veterano
# jul/05
· votar


John Johns

to scanneando...

se vc falar q nao quer mais eu ponho seu nick na macumba!!!

timeisonmyside
Veterano
# jul/05
· votar


pra mim o que sempre me quebrou foi a ritmica..
na verdade o segundo compasso...mas depois que tirei ele sai beleza....
mas pra mim o foda nesta musica são riffs enquanto o cara canta, o de intrudução não tem perrengue

HyperViruz
Veterano
# jul/05
· votar


se vc falar q nao quer mais eu ponho seu nick na macumba!!!
huaehauuaheuaeahueaue ele pode naum kere mas eu vo kere hehehe, mas nick na macumba eh foda, aí chega amanha todos os John Johns do mundo morrem

Enviar sua resposta para este assunto
        Tablatura   
Responder tópico na versão original
 

Tópicos relacionados a Deep Purple- Burn