Escala para fritacao

    Autor Mensagem
    Irmao_Caminhoneiro_Shell
    Veterano
    # set/04


    Qual escala vcs geralmente usam quando vao fritar ? tava treinando isso, eu geralmente uso a cromatica.

    LeandroP
    Moderador
    # set/04
    · votar


    Prefiro o bom e velho óleo de soja, mas um bife frito na manteiga... hummm!

    GuitarHouse
    Veterano
    # set/04
    · votar


    Acho q farenheit é melhor, mas há quem prefira a escala Ceslcius

    LeandroPanucci
    hum...bifinho com umas cebolas tb..hummm

    angus junior
    Veterano
    # set/04
    · votar


    po para de tira sarro do garoto ele soh querendop fazer umas boas batatas fritas
    uhauha
    zuera
    Irmao_Caminhoneiro_Shell
    eu tb uso cromatica
    mais tem um monte boa

    GuitarHouse
    Veterano
    # set/04
    · votar


    procure escalas que use umas 3 notas por corda, como as menores harmonica e melodica

    banido
    Veterano
    # set/04
    · votar


    Eu toko todas hehehe mais melhor mesmo como o guitar disse ae sao as de 3 notas por corda.Toke uma pentatonica e uma modo grego ou seila o q pra vc ve hehehe.Cromatica eu num vi ainda.Alguem ae passa o link da pagina aki com essa escala?

    Irmao_Caminhoneiro_Shell
    Veterano
    # set/04
    · votar


    Prefiro o bom e velho óleo de soja, mas um bife frito na manteiga... hummm!
    Acho q farenheit é melhor, mas há quem prefira a escala Ceslcius
    po para de tira sarro do garoto ele soh querendop fazer umas boas batatas fritas
    uhauha

    eu sabiaia gerar este tipo de msg depois que vi o titulo do topico..ehhehehe

    naka
    Veterano
    # set/04
    · votar


    penta é perfeita pra fritacao... poca nota , soa + musical as estrapoladas porcas

    Homem Cueca
    Veterano
    # set/04
    · votar


    Frígio Maior (lá vem o Panucci), escala maior.

    naka
    Veterano
    # set/04
    · votar


    Homem Cueca
    frigio? cara c voce for fritar ninguem vai percebe c é frigio , dorico e bla bla bla...

    Hocus Pocus
    Veterano
    # set/04
    · votar


    frigio? cara c voce for fritar ninguem vai percebe c é frigio , dorico e bla bla bla...

    haUHIHUEhuaehuiaehuaEHuiasHHuihuiaHUI

    na real percebe sim... pq vai dar a sonoridade frígio... a não ser q o cara toque rápido mas mto sujo.. dai num dá mesmo....

    mas po, fritar na cromática é feio... mistura cromática com a natural, e com a penta fica lindão o som =P

    angus junior
    Veterano
    # set/04
    · votar


    Hocus Pocus
    feio msm mais faze oq neh?

    Hocus Pocus
    Veterano
    # set/04
    · votar


    feio msm mais faze oq neh?

    treinar mais escalas ;D

    angus junior
    Veterano
    # set/04
    · votar


    Hocus Pocus
    hhuuhuhhuhuhuuhuhuhhhuhuhuuh
    verdade

    guitarhero2k3
    Veterano
    # set/04
    · votar


    como assim usar cromatica natural e penta ?

    alguem poderia ajudar ?

    banido
    Veterano
    # set/04
    · votar


    Como eu faço pra misturar as escalas.Tipo c eu for misturar vai dar todas as notas do braço.Isso eh muito confuso pra min hehehe tipo qualquer nota que vc tokar vais ser de uma escala nao eh?Então se tokar qualquer nota em qualquer ordem vai ta misturando as escalas ne?Putz isso me confunde mesmo hehe

    Agente Smith
    Veterano
    # set/04
    · votar


    se vc utilizar as escalas com seus desenhos abertos, sera muito mais fecil fritar(desenhos abertos = 3 notas por corda). Se não tiver os shapes lah no topico de escalas, monte vc mesmo da escala maior/menor natural, mnor harmonica e menor melodica, uma que eu particularmente gosto da sonoridade é a menor cigana. Tbm treina isso aki:

    com dedos 1, 2 e 4
    
    e-------------------------------1-3-5---------------------
    B-------------------------1-3-5---------------------------
    G-------------------1-3-5---------------volta inverso-----
    D-------------1-3-5---------------------------------------
    A-------1-3-5---------------------------------------------
    E-1-3-5---------------------------------------------------


     dedos 1,3 e 4
    
    e-------------------------------1-4-6---------------------
    B-------------------------1-4-6---------------------------
    G-------------------1-4-6---------------------------------
    D-------------1-4-6-------------------volta ao contrario--
    A-------1-4-6---------------------------------------------
    E-1-4-6---------------------------------------------------


     com dedos 1,2 e 3
    
    e-------------------------------1-3-4---------------------
    B-------------------------1-3-4---------------------------
    G-------------------1-3-4---------------------------------
    D-------------1-3-4--------------------volta ao contrario-
    A-------1-3-4---------------------------------------------
    E-1-3-4---------------------------------------------------


     com dedos 1 2 e 3
    
    e-------------------------------1-2-4---------------------
    B-------------------------1-2-4---------------------------
    G-------------------1-2-4-------------volta ao contrario--
    D-------------1-2-4---------------------------------------
    A-------1-2-4---------------------------------------------
    E-1-2-4---------------------------------------------------
    usando sempre palhetada alternada, descendo comece palhetando para baixo, subindo, para cima. as escalas menor harm/melodica, em algumns pedaços vão precisar de uma abertura muito grande, então é bom fazer esses exercicios, e suas variações(= 1234)

    Drinho
    Veterano
    # set/04
    · votar


    Prefiro o bom e velho óleo de soja, mas um bife frito na manteiga... hummm!
    AS BOAS E VELHAS PIADINHAS SEMPRE PRESENTES POR AKI!

    John Johns
    Veterano
    # jul/05
    · votar


    Viva a Fritação

      Enviar sua resposta para este assunto
              Tablatura   
      Responder tópico na versão original
       

      Tópicos relacionados a Escala para fritacao