Qual é o segredo?

    Autor Mensagem
    ESP
    Veterano
    # set/04


    Ae galera... po faltei nessa aula :-/ mais gostaria de saber qual é o segredo pra alcançar 218bpm nisso ae...
    Qual a maneira mais eficaz ou correta de palhetar isso ae?¿?
    Valew


    Children of Bodom - Towards Dead End

    d-------17-22p17----------17-22p17---------------------
    a----18----------18----18----------18------------------
    f-19----------------19---------------------------------
    C------------------------------------------------------
    G------------------------------------------------------
    D------------------------------------------------------


    d-------12-17p12----------12-17p12---------------------
    a----13----------13----13----------13------------------
    f-16----------------14---------------------------------
    C------------------------------------------------------
    G------------------------------------------------------
    D------------------------------------------------------

    angus junior
    Veterano
    # set/04
    · votar


    isso seria um sweep

    Grodash
    Veterano
    # set/04
    · votar


    Qual é o segredo?
    Da Perdigão?

    GuitarHouse
    Veterano
    # set/04
    · votar


    ESP
    desce usando sweep (palhetada unidirecional) usa legato nas 3 notas da mesma corda e sobe em sweep tb, unidirecional

    Motley Crue
    Veterano
    # set/04 · Editado por: Motley Crue
    · votar


    .

    Grodash
    Veterano
    # set/04
    · votar



    d-------17-22p17----------17-22p17---------------------
    a----18----------18----18----------18------------------
    f-19----------------19---------------------------------
    C------------------------------------------------------
    G------------------------------------------------------
    D------------------------------------------------------


    d-------12-17p12----------12-17p12---------------------
    a----13----------13----13----------13------------------
    f-16----------------14---------------------------------
    C------------------------------------------------------
    G------------------------------------------------------
    D------------------------------------------------------

    só ajudando pq meu coment foi inutil...

    angus junior
    Veterano
    # set/04
    · votar


    Grodash
    eu chamo um amigo de perdigao o cara eh hilario
    ESP
    Da sadia?

    angus junior
    Veterano
    # set/04
    · votar


    EU DESAFIO ALGUEM FAZE SWEEP CUMA LINGUA

    angus junior
    Veterano
    # set/04
    · votar


    corrigindo
    cum a*

    ESP
    Veterano
    # set/04 · Editado por: ESP
    · votar


    "unidirecional" q isso?

    q é legato?

    esse sweep acho q vai soar bem sujo ... seria o certo abafar?

    angus junior
    Veterano
    # set/04
    · votar


    ESP
    eh uma tecnica
    procura na busca
    sobre sweep

    ESP
    Veterano
    # set/04
    · votar


    é q inidirecional é um termo um tanto quanto sofisticado (q por sinal nunca tinha visto :-p)... poderia ser p/baixo ou p/ cima... um termo bem mais simples hehehe

    mais vlw... vo treina com a guita desligada hj a noite e amanhã plugo com dist pra ver como vai fica.

    angus junior
    Veterano
    # set/04
    · votar


    eh foda pra kralho sweep

    ServeTheServants
    Melhor arranjo
    Prêmio FCC violão 2008
    # set/04
    · votar


    Po, se eu contar, não vai ser mais segredo.

    angus junior
    Veterano
    # set/04
    · votar


    ServeTheServants
    realmente
    ta afim de fazer sweep cum a lingua?

      Enviar sua resposta para este assunto
              Tablatura   
      Responder tópico na versão original
       

      Tópicos relacionados a Qual é o segredo?