Sempre a mesma coisa

    Autor Mensagem
    felipe vai
    Veterano
    # ago/04 · Editado por: felipe vai


    Ae moçada....to ficando com raiva d mim mesmo.....pq mesmo sabendo as escalas e tals....qndo eu vou improvisar sempre sai a mesma coisa :
    <pre>
    e---15-14-12-------------------------------------------------
    B-----------15-13-12-----------------------------------------
    G--------------------14-12-14b-14-12--12~-------------------
    D-----------------------------------14----------------------
    A------------------------------------------------------
    E-0----------------------------------------------------
    </pre>
    <pre>
    e---12h17p12----------------------------------------
    B-----------13--------------------------------------
    G-------------12~------------------------------------
    D------------------------------------------------------
    A------------------------------------------------------
    E------------------0\12/0---------------------------------
    </pre>

    Sei que eh uma merda...mas por mais q eu tente quase sempre sai isso

    felipe vai
    Veterano
    # ago/04
    · votar


    Ahhhhhh
    Nao consigo arrumar...mas eh nota por nota aki...nada de bi-chord....e o final eh um micro-arpeggio

    felipe vai
    Veterano
    # ago/04
    · votar


    Queria q vcs postassem aki algumas dicas pra incrementar...opinioes sobre essa impro q jah nao eh mais improvisação.....e postem as suas frases ae tbm!

    felipe vai
    Veterano
    # ago/04
    · votar


    Ninguem??? Ahhhh pelo amor neh??? PO gnt...coloquem suas frases aih vai?

    nofx2804
    Veterano
    # ago/04
    · votar


    ´´kem espera sempre alcança´´
    essa é minha frase

    Soulface
    Veterano
    # ago/04
    · votar


    ´´kem espera sempre alcança´´
    Qm corre atrás alcança mais rápido hein?! hehehehe
    ficar esperando pode não levar a lugar algum...

    felipe vai
    Veterano
    # ago/04
    · votar


    Nao frases assim poxa.....frases na guita....riffs ...solos proprios....po...

    Digao
    Veterano
    # ago/04
    · votar


    escute outras coisas...

    nothing else matters
    Veterano
    # ago/04
    · votar



    <pre>
    e---15-14-12-------------------------------------------------
    B-----------15-13-12-----------------------------------------
    G--------------------14-12-14b-14-12--12~-------------------
    D-----------------------------------14----------------------
    A------------------------------------------------------
    E-0----------------------------------------------------
    </pre>
    <pre>
    e---12h17p12----------------------------------------
    B-----------13--------------------------------------
    G-------------12~------------------------------------
    D------------------------------------------------------
    A------------------------------------------------------
    E------------------0\12/0---------------------------------


    Heavy_Metalleiro
    Veterano
    # ago/04
    · votar


    Tente tirar alguns solos de guitarristas , ai depois veja o q vc axou mais legal em cada solo e una no seu improviso. Tente com técnicas mais variadas e tal....

      Enviar sua resposta para este assunto
              Tablatura   
      Responder tópico na versão original
       

      Tópicos relacionados a Sempre a mesma coisa