Solo - Wasting Love

    Autor Mensagem
    Dark Gallon
    Veterano
    # jul/04 · Editado por: Dark Gallon


    Estou tirando o solo dessa música, mas estou com uma dificuldade:

    Na parte do solo que vai dos 4:36 da música aos 4:38, estou tendo dificuldades.

    Na tab que eu tenho do Guitar Pro, está assim:

    e----15-14-12------------------------------------------
    
    B-12----------15-13-12---------------------------------
    G---------------------14-12-11-12-11-------------------
    D----------------------------------14-12---------------
    A------------------------------------------------------
    E------------------------------------------------------


    A tab realmente está correta? Se não estiver, alguém pode me mandar a certa?

    E ah, tem alguma dica pra tocar essa parte?

    guilhermecarli
    Veterano
    # jul/04
    · votar


    ta certa sim

    Doctor Robert
    Veterano
    # jul/04
    · votar


    A tab ta certa
    Cara, tu tem 4 dedos para tocar, use-os nessa primeira parte 15 14 12 tu usa o dedo 4 3 1 na de cima isso já muda. Vai fazendo uns exercícios que com o tempo tu se adapta.
    OBS: USE TODOS SEUS DEDOS.

    Dark Gallon
    Veterano
    # jul/04
    · votar


    guilhermecarli
    Doctor Robert


    Valeu pela ajuda, galera. Consegui tirar essa parte...acho que a dificuldade é porque como ainda não comprei minha guitarra (talvez compre amanhã), estou tocando num violão sem corte no corpo...hahaha

    Dave Murray
    Veterano
    # jul/04 · Editado por: Dave Murray
    · votar


    ae galera.. lamento informar pra vcs q essa tab tah errada.. tirei o solo da wasting love de estudio e de algumas versoes ao vivo, e vi q essa parte corresponde as versoes ao vivo da musica.. a versao estudio eh:


    E ----15-14----------------------------
    B -12-------15-13-12-13-12-------------
    G -------------------------14-12-11-12-
    D -------------------------------------
    A -------------------------------------
    E -------------------------------------


    Blade
    Veterano
    # jul/04
    · votar


    Dave Murray
    realmente, é igual a q meu professor me passou

    BruceBarros1
    Veterano
    # jul/04
    · votar


    Dave Murray
    eu tb toco assim

    Thaynan
    Veterano
    # ago/05
    · votar


    Toca assim q fica igualzinha:


    e-----15----14----12-----------------------------------
    B--12----12----12-----15-15b--15-13--------------------
    G-----------------------------------14-----------------
    D------------------------------------------------------
    A------------------------------------------------------
    E------------------------------------------------------

    heathcliff
    Veterano
    # ago/05
    · votar


    me falem os segundos ae plz pra eu ver se tiro

      Enviar sua resposta para este assunto
              Tablatura   
      Responder tópico na versão original
       

      Tópicos relacionados a Solo - Wasting Love