"Iron Maiden"

Autor Mensagem
Agente Smith
Veterano
# jun/04


Ae , vamos postar riffs e solos da maior Banda DE METAL DO PLANETA!

aCES HIGH

Rhytm. Fig 1a
E|----------------|-------------|
B|----------------|-------------|
G|-----------6----|-------------|
D|---6-7-9-7---9--|---6-7h9-7-6-|
A|----------------|-------------|
E|----------------|-------------|

Rhytm. Fig 1b

E|----------------|-------------|
B|----------------|-------------|
G|----------------|-------------|
D|-------6---7-6--|-------6-----|
A|---7-9---9------|---7-9---9-7-|
E|----------------|-------------|


Math_campos
Veterano
# jun/04
· votar


Agente Smith
mto legal sua iniciativa...ja posto alguns ai

ziotti
Veterano
# jun/04
· votar


THE TROOPER


Riff 1(Dave Murray): Repete 4 vezes
e--------------------------------------------
B--------------------------------------------
G--------------------------------------------
D-------------------------------------5------
A-7-7-7/5-----5-5-5/3-----3-3-3/2---5---5----
E--------7-----------5-----------3-----------

Riff 1(Adrian Smith): Adrian harmoniza na 3ª e 4ª sequencia somente
e--------------------------------------------
B--------------------------------------------
G--------------------------------------------
D----------------------------------------9---
A-10-10-10/9-----9-9-9/7----7-7-7/5----9---9-
E------------10----------8----------7--------


DrEw
Veterano
# jun/04
· votar


Aproveitando q o assunto aqui é Iron queria pedir encarecidamente c alguém poderia me arranjar o solo CORRETO de CAN I PLAY WITH MADNESS...

Já procurei um vários sites + a maioria das tabs naum tem o solo ou ta errado...

Alguém ae pode da um help????

flpmartin321
Veterano
# jun/04
· votar


galera quem quiser vai procurar no www.cifraclub.com.br

DrEw
Veterano
# jun/04
· votar


flpmartin321

num é bem assim cara...

infelizmente ta faltando coisa na tab no cifraclub....

tagimon
Veterano
# jun/04
· votar


songbooks tem... eh .com e tem que usar Guitar pRo

Agente Smith
Veterano
# jun/04
· votar


DrEwUe tirei quase inteiro ha um mes, , até o prox sabado eu posto neste topico, pois tenho q tirar de novo, mas num é muito dificil não

ziotti
Veterano
# jun/04
· votar


2 MINUTES TO MIDNIGHT(SOLOS)


[Solo 1]: Dave Murray
e-------------------------------------------------------
B---------------------5-6-8-5h6p5h6p5-8-5h6p5h6p5-------
G-7^--7-5-4-5-------------------------------------------
D-------------7-5~--------------------------------------
A-------------------------------------------------------
E-------------------------------------------------------

e-----------------------------------------15^-----------
B-8-5h6p5h6p5----------------------15^-13---------------
G-------------5h7p5-5h7p5-4-4---------------------------
D-----------------------------5~------------------------
A-------------------------------------------------------
E-------------------------------------------------------

e-15-12-15----12--------15---------------------------------
B----------15----13-15^----15^-13-----12-12-12-12-12-12-12-
G---------------------------------14~----------------------
D----------------------------------------------------------
A----------------------------------------------------------
E----------------------------------------------------------

e----------------------------------------------------------
B-12-12-12-12-13-13-13-13-13-15-15-15-15-15-15-15-15-15-15-
G----------------------------------------------------------
D----------------------------------------------------------
A----------------------------------------------------------
E----------------------------------------------------------

e-12-12-12-12-12-12-12-12-12-12-12-12-12-13-13-13-13-13-13-
B----------------------------------------------------------
G----------------------------------------------------------
D----------------------------------------------------------
A----------------------------------------------------------
E----------------------------------------------------------

e-15-15-15-15-15-15-15-15-15-15-15-15-15-17-17-17-17-17-17-
B----------------------------------------------------------
G----------------------------------------------------------
D----------------------------------------------------------
A----------------------------------------------------------
E----------------------------------------------------------

e-17-17-17-17-17-17-17/20-20^-20-17---------------------
B-----------------------------------20~-----------------
G-------------------------------------------------------
D-------------------------------------------------------
A-------------------------------------------------------
E-------------------------------------------------------

[Solo 2]: Adrian Smith
e-----------------------------------------------------------
B-15^-------------------------------------17-16-15----------
G-14^--14-12-14~--12-11-------11-------------------16-15-14-
D-----------------------14-12----12-11~---------------------
A-----------------------------------------------------------
E-----------------------------------------------------------

e-----------------------------------------------------------
B--------------------------------------------------15^------
G-12----14-----------------------------------12-14----------
D----14----17-14-----------------------12-14----------------
A----------------17-14-----------12/14----------------------
E----------------------18-17-15-----------------------------

e------------------------------------12------12-------------
B---------------------------------------15^-----15-12----12-
G-----4-----9------------6----------------------------14----
D----------------5---5-7---7-5------------------------------
A-7-7---7-7--------7-----------7----------------------------
E-----------------------------------------------------------

e------------------17-15-14-----------------------------
B-15-12---------------------17-15-----------------------
G-------14-12---------------------17-16-14--------------
D-------------14~--------------------------17-16-14-----
A---------------------------------------------------17--
E-------------------------------------------------------


ziotti
Veterano
# jun/04
· votar


THE NUMBER OF THE BEAST(SOLOS)


[Solo 1]: Dave Murray
Base do solo 1: Bb5 F5
e---------------------------------------------------------
B-15h18p15h18p15h18p15------------------------------------
G----------------------15-14-16^-16h14p16h14p12h14p12h14p-
D---------------------------------------------------------
A---------------------------------------------------------
E---------------------------------------------------------

e--------------------------------------------------------
B--------------------------------------------------------
G-12h14p12h14p10h12p10h12p10h12p10h12p10h12p10/9~--------
D--------------------------------------------------------
A--------------------------------------------------------
E--------------------------------------------------------

e--------------------------------------------------------
B-5/10-15h17p15h17p15h17p15h17p15h18p15h18p15h18p15h18p--
G--------------------------------------------------------
D--------------------------------------------------------
A--------------------------------------------------------
E--------------------------------------------------------

e----------------------------------------------------------
B-15h17p15h17p15h17p15h17p-15-18^-18^~--15h18p15h18p15h18p-
G----------------------------------------------------------
D----------------------------------------------------------
A----------------------------------------------------------
E----------------------------------------------------------

e---------------------------------------------------------
B-13h15p13h15p13h15p11h13p11h13p11h13p11h13p10-10-10-10/8-
G---------------------------------------------------------
D---------------------------------------------------------
A---------------------------------------------------------
E---------------------------------------------------------

e--------------------------------------------------------
B-8h10p8h10p8h10p6h8p6h8p6h8p6h8p6p5h6p5-6-5-------------
G--------------------------------------------7-5---------
D------------------------------------------------7-5~----
A--------------------------------------------------------
E--------------------------------------------------------

e--------------------------------------------------------
B----13-15p13h15p13h15p13p17p18h17p18h17p18--20^--20^----
G-14-----------------------------------------------------
D--------------------------------------------------------
A--------------------------------------------------------
E--------------------------------------------------------

e---------20^--20^---------------------------------------
B-20^-18-------------------------------------------------
G--------------------------------------------------------
D--------------------------------------------------------
A--------------------------------------------------------
E--------------------------------------------------------

Riff 5: Essa é a parte que fica entre o 1º e o 2º solo
e--------------------------------------------------------
B--------------------------------------------------------
G----------7---5----------------------3---1--------------
D-7-7-5--7---7---7-5-------5-5-3----3---3---3-1----------
A-5-5-3--------------7-5-5-3-3-1----------------3-1-1----
E--------------------------------------------------------

e--------------------------------------------------------
B--------------------------------------------------------
G--------------------------------------------------------
D--------------------------------------------------------
A-5-5-3---3-3-3-3-5-5-5-5-7-7-7--------------------------
E-3-3-1---1-1-1-1-3-3-3-3-5-5-5--------------------------

[Solo 2]: Adrian Smith
Base do solo 2: D5 F5 G5 Bb5 - C5 - D5
e--------------------------------------------------------
B-----13-13-----13-13-----13-13-----13-13------10--------
G-15^-------15^-------15^-------15^-------15^--10--------
D--------------------------------------------------12-10-
A--------------------------------------------------------
E--------------------------------------------------------

e-----------------------10-13-12-10----10----------------
B----------------10-13^-------------13----13-12-10-------
G----------12^-------------------------------------12-10-
D--------------------------------------------------------
A-12-11-10-----------------------------------------------
E--------------------------------------------------------

e---------------------------------------------------------
B-----10-12^-10----------15-18----15-18----15-18----15-18-
G-12^-----------12~---17-------17-------17-------17-------
D---------------------------------------------------------
A---------------------------------------------------------
E---------------------------------------------------------

e-----------------------------------------15h17p15-----------
B----15-18----15-18----15-18----15-18-18^----------18-15-18^-
G-17-------17-------17-------17------------------------------
D------------------------------------------------------------
A------------------------------------------------------------
E------------------------------------------------------------

e-15h17p15-------------20^-20^---------------------------
B----------18-15-18^-----------18------------------------
G---------------------------------19~--------------------
D--------------------------------------------------------
A--------------------------------------------------------
E--------------------------------------------------------


DrEw
Veterano
# jun/04
· votar


Agente Smith

valew cara!!
eu to ligado q esse solo nem é tão difícil + acho ele mto loko da uma sonoridade de blues na música...

só num arrisco tira ele pq ainda num tenho mta pratica em tira músicas e queria tok ele certinho...

luis_mariutti_fan
Veterano
# jun/04
· votar


Agente Smith

Tua iniciativa é legal, vou copiar no fórum de baixo...

Jerry Cantrell
Veterano
# jun/04
· votar


luis_mariutti_fan
Tua iniciativa é legal, vou copiar no fórum de baixo...
VC não tem capacidade de tirar nenhuma música, pq pra gostar desse luisinho tem que ser muito ruim

LeandroP
Moderador
# jun/04
· votar


Jerry Cantrell

Não zoa o tópico amiguinho... usa o ICQ ou o MSN pra fazer estes comentários:)

Agente Smith
Veterano
# jun/04
· votar


Can I Play With Madness

e-----15-----15-------------15b~~~--------------------------
B-15b----15b----15b~~~--12---------------------------------
G----------------------------------------------------------
D------------------------------------7b-7brp5-7-7p5-7-7----
A----------------------------------------------------------
E----------------------------------------------------------


 ( a partir da qui entra um efeiro, axo q é wha)

e-------------------------------------6-8-8brp5-8-8-5------
B-------------------------15b~------8----------------------
G--------12-14brp12-14p12----------------------------------
D----/14---------------------------------------------------
A----------------------------------------------------------
E----------------------------------------------------------



e------------------------------------------------------
B--x--3------------------------------------------------
G--x--3------------------------------------------------
D--x--3-(dive)-----------------------------------------
A-------------------------x\---------------------------
E-------------------------x\---------------------------


luis_mariutti_fan
Veterano
# jun/04 · Editado por: luis_mariutti_fan
· votar


Jerry Cantrell
Pelo amor de Deus não vamos começar outra discurção igual no forum de baixo.

Agente Smith
Veterano
# jun/04
· votar


luis_mariutti_fanBeleza! se alguem conhecer algo sobre os baixos ou bateras das musicas do maiden postem!
Jerry, se eu entendi bem se me zoou, mas num vo liga não.Se se num gosta de iro num posta, ignora esse topico!

Agente Smith
Veterano
# jun/04
· votar


luis_mariutti_fanBeleza! se alguem conhecer algo sobre os baixos ou bateras das musicas do maiden postem!
Jerry, se eu entendi bem se me zoou, mas num vo liga não.Se se num gosta de iro num posta, ignora esse topico!

ziotti
Veterano
# jun/04
· votar


THE NOMAD
Dave Murray / Steve Harris

To postando até a parte q eu tirei...


[Riff 1]
e-----------------------------------------------------------
B-----------------------------------------------------------
G-----------------------------------------------------------
D---------9-10-9---9---9-------------9-10-9---7---7---------
A---------7-8--7---7---7-------------7-8--7---5---5---------
E-0-0-0-0--------0---0-------0-0-0-0--------0---0-----------

e-----------------------------------------------------------
B-----------------------------------------------------------
G-----------------------------------------------------------
D---------9-10-9---9---9-------------9-10-9---5-------------
A---------7-8--7---7---7-------------7-8--7---3----7--------
E-0-0-0-0--------0---0-------0-0-0-0--------0---0--5--------

e-----------------------------------------------------------
B-----------------------------------------------------------
G-----------------------------------------------------------
D---------9-10-9---9---9-------------9-10-9---7---7---------
A---------7-8--7---7---7-------------7-8--7---5---5---------
E-0-0-0-0--------0---0-------0-0-0-0--------0---0-----------

e-----------------------------------------------------------
B-----------------------------------------------------------
G-----------------------------------------------------------
D---------9-10-9---9---9-------------9-10-9-----------------
A---------7-8--7---7---7-------------7-8--7-----------------
E-0-0-0-0--------0---0-------0-0-0-0------------------------

[Riff 2]
Guitarra 1
e-----------------------------------------------------------
B-----------------------------------------------------------
G-----------------------------------------------------------
D-9-9-9-9-10-9-7-9~---9-9-9-9-10-9-7~-----------------------
A-----------------------------------------------------------
E-----------------------------------------------------------

Guitarra 2
e-----------------------------------------------------------
B-12-12-12-12-13-12-10-12~---12-12-12-12-13-12-10~----------
G-----------------------------------------------------------
D-----------------------------------------------------------
A-----------------------------------------------------------
E-----------------------------------------------------------

[Riff 3]
Guitarra 1
e-----------------------------------------------------------
B-12---7-8-7--12---7-8-7~-----------------------------------
G-----------------------------------------------------------
D-----------------------------------------------------------
A-----------------------------------------------------------
E-----------------------------------------------------------

Guitarra 2
e-----------------------------------------------------------
B-----------------------------------------------------------
G-----------------------------------------------------------
D-4-----------4---------------------------------------------
A-2---4-5-4---2---4-5-4-------------------------------------
E-----2-3-2-------2-3-2-------------------------------------

[Riff 4]
Guitarra 1
e---------------------------------------------------------------
B-12-13-12----12~----12-13-12----15-13-12----12-12-13-12-14-12~-
G----------14-----------------14----------14--------------------
D---------------------------------------------------------------
A---------------------------------------------------------------
E---------------------------------------------------------------

Guitarra 2: Fazer 2x
e-----------------------------------------------------------
B-----------------------------------------------------------
G-----------------------------------------------------------
D---------9-10-9---9---9-------------9-10-9---7---7---------
A---------7-8--7---7---7-------------7-8--7---5---5---------
E-0-0-0-0--------0---0-------0-0-0-0--------0---0-----------

e-----------------------------------------------------------
B-----------------------------------------------------------
G-----------------------------------------------------------
D---------9-10-9---9---9-------------9-10-9---5-------------
A---------7-8--7---7---7-------------7-8--7---3----7--------
E-0-0-0-0--------0---0-------0-0-0-0--------0---0--5--------

[Verso]
e-----------------------------------------------------------
B-----------------------------------------------------------
G-----------------------------------------------------------
D--4--------------------------------------------------------
A--2----4--7------------------------------------------------
E-------2--5------------------------------------------------

[Refrão 1] -> São os 2 primeiros refrões
"Nomad rider of the ancient east nomad..."
Guitarra 1: Riff 4(Guitarra 1)
Guitarra 2: Riff 4(Guitarra 2)

[Refrão 2] - Esse é o que o bruce puxa bastante a voz(fazer 2x)
"Nomad... you're the rider so mysterious..."
e-----------------------------------------------------------
B-----------------------------------------------------------
G-----------------------------------------------------------
D--9-9-9----4-5----7-7-7----4-5-7-7-5-4---------------------
A--7-7-7----2-3----5-5-5------------------------------------
E-----------------------------------------------------------


Agente Smith
Veterano
# jun/04
· votar


 Um solo q o dave do forum tiro pra min:

Evil that men do

E --------------14-16-16b-16p14------16--------------------
B -14h17p14-17b-----------------17~----17---17-------------
G ---------------------------------------16---16---16------
D ----------------------------------------------14---14----
A -----------------------------------------------------16~-
E ---------------------------------------------------------

E ---------------------------------------------12~---------
B --------------------------------------10-7-10-----10-9-10
G -----------------6-------7-6---6-9b----------------------
D -6-7---6-9-7-6-7---9-7-9-----9---------------------------
A -----9---------------------------------------------------
E ---------------------------------------------------------
* * * * * * * * * * * * * * * *

E --------------10b-7---------10b-7---------12-------------
B ---------10-7----------10-7----------10-7-----9-10-------
G -9~---9b------------9b------------9b---------------9~~---
D ---------------------------------------------------------
A ---------------------------------------------------------
E ---------------------------------------------------------

E -16-16--------------------19b-19-17-16-16h17p14-14h16p14-
B ------17---17--------------------------------------------
G --------16---16---16-------------------------------------
D ---------------14---14-----------------------------------
A ----------------------16~--------------------------------
E ---------------------------------------------------------

E -----------------------------
B -17-14-17-14-----------------
G -------------16-14-16-12~~~--
D -----------------------------
A -----------------------------
E -----------------------------




b = bend
~ = vibrato
h = hammer on
p = pull off
* = palm muted



ziotti
Veterano
# jun/04
· votar


FEAR OF THE DARK
Steve Harris

Esses são akeles solos rapidos...

Solo 1: Janick Gers
e----------------------------------10-10--13^-12-10----10------
B-13^------------------------------10-10------------10---------
G-12^-12-10----10---------10--12~------------------------------
D-----------12------------10-----------------------------------
A------------------10h12---------------------------------------
E--------------------------------------------------------------

e---------------------------------------15^-13-12--------------
B-13-11-10----10----------------------------------13~----------
G----------12----12-10----10-12-10/2---------------------------
D----------------------12--------------------------------------
A--------------------------------------------------------------
E--------------------------------------------------------------
sweep
e-------------------------------------13^-------------------------
B----------13------13^----------------13^-------------------------
G-------12----12---12^--12-10----10~--12^-12-10----10-------------
D----14-----------------------12----------------12----12-10----10-
A-15--------------------------------------------------------12----
E-----------------------------------------------------------------

Solo 2: Dave Murray
e----------------------------------17^-17-16-17-16h14p16h14----15h14-
B-------------------------------14--------------------------17-------
G--------------------------------------------------------------------
D--------------------------------------------------------------------
A-12-11-10-8-10-8----------------------------------------------------
E-----------------10-10----------------------------------------------

e--------------------------------------------------------------
B-17h14----14h17p14----14h17p14----14h15p14----14h15p14--------
G-------16----------16----------16----------16-----------------
D--------------------------------------------------------------
A--------------------------------------------------------------
E--------------------------------------------------------------

e-----------------------------------17h14--------------------------
B----------------14h15p14-17^-17h14-------17h14-15p14----14h17p14--
G-16-14-13-14-16--------------------------------------16-----------
D------------------------------------------------------------------
A------------------------------------------------------------------
E------------------------------------------------------------------

e--------------------------------------------------------------
B----14--------------------------------------------------------
G-16----16p14h16p14----14----------------------14-16-14~-------
D-------------------16----16p14h16p14----14-16-----------------
A-------------------------------------16-----------------------
E--------------------------------------------------------------

e-19^-19^-17-16----------------------14h17p16p14----14h16p14---
B---------------17----------14h15h16-------------17------------
G------------------16-14h16------------------------------------
D--------------------------------------------------------------
A--------------------------------------------------------------
E--------------------------------------------------------------

e--------------------------------------------------------------
B-17p15h14h15p14-----------------------------------------------
G----------------16h18h19p18h19p18---19-18h19p18h16p18---------
D--------------------------------------------------------------
A--------------------------------------------------------------
E--------------------------------------------------------------

e--------------------------------------------------------------
B---------------------------------------14-19-14h19p14---------
G-16h18p16-14-16--14h16p14p1314------14----------------14------
D---------------------------------14---------------------------
A--------------------------------------------------------------
E--------------------------------------------------------------

e--------------------------------------------------------------
B-------14-19-19~----------------------------------------------
G----14--------------------------------------------------------
D-14-----------------------------------------------------------
A--------------------------------------------------------------
E--------------------------------------------------------------


Jerry Cantrell
Veterano
# jun/04
· votar


e|----------------------------------------------|
B|-----14---------------------------------------|
G|--12-13----12-14-12^10------10---10^0---------|
D|------------------------12--------------------|
A|---------------------------------------10^12--|
E|----------------------------------------------|


e|--------------------10-10-10------13--15------|
B|--------------------10-10-10------------------|
G|---10-----12-14-------------------------------|
D|---10-----------------------------------------|
A|----------------------------------------------|
A|----------------------------------------------|


e|-15---13^12-10----10--------------------------|
B|---------------10----13-11^10-----10----------|
G|-------------------------------12----12^10----|
D|-------------------------------------------12-|
A|----------------------------------------------|
E|----------------------------------------------|


e|----------------------------------------------|
B|----------------------------------------------|
G|--10----12-----10----10----10^2-\-------------|
D|----------------------------------------------|
A|----------------------------------------------|
E|----------------------------------------------|


e|-15-17----15-13^12-13-------------------------|
B|----------------------13-----------13---------|
G|--------------------------------12------12^10-|
D|-----------------------------14---------------|
A|--------------------------15------------------|
E|----------------------------------------------|


e|----------------------------------------------|
B|----10----------------------------------------|
G|-12-14---12-14--12^10-------10----------------|
D|------------------------12--------------------|
A|----------------------------------------------|
E|----------------------------------------------|


e|------13----------------------------------------------|
B|------13----------------------------------------------|
G|-(12)-14-(12)-14-12^10----10--------------------------|
D|-----------------------12----12^10----10--------------|
A|-----------------------------------12----12--11^10^8--|
E|------------------------------------------------------|


e|-----------------------------------------------------||
B|-----------------------------------------------------||
G|-----------------------------------------------------||
D|-----------------------------------------------------||
A|--10^8-----------------------------------------------||
E|---------10----10-----10-----------------------0-----||



segunda guitarra

e|------\19----17----16--17--16^14^16^14------15^14------------------- -------|
B|----------------------------------------17---------17^14^12----14^-- -------|
G|------------------------------------------------------------16------ -------|
D|-------------------------------------------------------------------- -------|
A|-------------------------------------------------------------------- -------|
E|-------------------------------------------------------------------- -------|


e|-------------------------------------------------------------------- -------|
B|-^17^14----14^17^14----14-15^14----14-15^14----------------14^15-14- 17-19--|
G|--------16----------16----------16----------16^14^13-14^16---------- -------|
D|-------------------------------------------------------------------- -------|
A|-------------------------------------------------------------------- -------|
E|-------------------------------------------------------------------- -------|


e|---------------(17)-15-17^14---------------------------------------- -------|
B|-(17)-15-17^14---------------17^14---15^14----14^17^14---14--------- -------|
G|-----------------------------------0-------16----------16---16^14^16 ^14----|
D|-------------------------------------------------------------------- ----16-|
A|-------------------------------------------------------------------- -------|
E|-------------------------------------------------------------------- -------|


e|------------------------------------------------------19-19-21------ -------|
B|-------------------------------------------------------------------- -------|
G|--14-----------------------------14-16-18-16-14-14^6---------------- -------|
D|------16^14-16^14-----------14^16----------------------------------- -------|
A|------------------16^16-16------------------------------------------ -------|
E|-------------------------------------------------------------------- -------|


e|----21----21----20----17^16----------------------------------------- -------|
B|-----------------------------17------------14^15^16----------------- -------|
G|---------------------------------16^14^16--------------------------- -------|
D|-------------------------------------------------------------------- -------|
A|-------------------------------------------------------------------- -------|
E|-------------------------------------------------------------------- -------|


e|-14^17^16^14----14^16^14-------------------------------------------- -------|
B|-------------17----------17^15^14--14^15^14--14^15^14--------------- -------|
G|-----------------------------------------------------16^18--18^19^18 ^19^18-|
D|-------------------------------------------------------------------- -------|
A|-------------------------------------------------------------------- -------|
E|-------------------------------------------------------------------- -------|


e|-------------------------------------------------------------------- -------|
B|--------------------------------------------------------------14--19 -------|
G|-19---18^19^18^16-18---16^18^16^14-16---14^16^14^13-14-----14------- -------|
D|--------------------------------------------------------16---------- -------|
A|-------------------------------------------------------------------- -------|
E|-------------------------------------------------------------------- -------|


e|-------------------------------------------------------------------- ------|
B|---19---14^19^14-------------14-19-19------------------------------- ------|
G|------------------14------14---------------------------------------- ------|
D|----------------------14-------------------------------------------- ------|
A|-------------------------------------------------------------------- ------|
E|-------------------------------------------------------------------- ------|

o meu solo está mais correto

Agente Smith
Veterano
# jun/04
· votar





h-hammer-on
p-Pull-Of
\ou/-Slide
tr-trinado
pm-palm mute
O q eu tirei de prowler(mas num tenho certeza não)
hn-harmônico Natural
ha-harmônico Artificial
b-bend
r-reverse



Rhytm. Fig. 1

E|------------------------------------|
B|------------------------------------|
G|------------------------------------|
D|--9--9--9------9-----9-----9--------|
A|--7--7--7---7--7--7--7--7--7--7-----|
E|--0--0--0---0--0--0--0--0--0--0-----|

Rhytm. Fig. 2

E|------------------------------------|
B|------------------------------------|
G|---7--7--7------7-----7-----7-----7-|
D|---7--7--7---7--7--7--7--7--7--7--7-|
A|---5--5--5---5--5--5--5--5--5--5--5-|
E|------------------------------------|

Riff Ia End 1

E|-/3~--2~--5b6r-p2-2--3~--|---0tr2---|
B|-------------------------|-(Diving)-|
G|-------------------------|----------|
D|-------------------------|----------|
A|-------------------------|----------|
E|-------------------------|----------|

Riff Ib End 1

E|-/3~--2~--5b6r-p2-2--3~--|-0tr2-----|
B|-------------------------|----------|
G|-------------------------|----------|
D|-------------------------|----------|
A|-------------------------|----------|
E|-------------------------|----------|

Rhytm. Fig. 3

E|------------------------------------|
B|------------------------------------|
G|------------------------------------|
D|----------9-----9-----9-------------|
A|----------7-----7-----7-------------|
E|-0--0--0--0--0--0--0--0--0----------|
pm------> --> --> -->


Rhytm. Fig. 4

E|------------------------------------|
B|------------------------------------|
G|----------7-----7-----7-------------|
D|----------7-----7-----7-------------|
A|-5--5--5--5--5--5--5--5-------------|
E|------------------------------------|
pm-------> --> -->


Rhytm. Fig. 5

E|------------------------------------|
B|---3--------------------------------|
G|---0----2---------------------------|
D|---0----2---------------------------|
A|--------0---------------------------|
E|---3--------------------------------|

Rhytm. Fig. 6a

E|-------------------------------------------|
B|-------------------------------------------|
G|--10-10-10-10-10-10-10--10-----------------|
D|--10-10-10-10-10-10-10--10-----10----10----|
A|--8--8--8--8--8--8--8---8--8-8-8-8-8-8-8-8-|
E|-------------------------------------------|
pm----------------> --------------->

Rhitm. Fig 6b

E|------------------------------------------------|
B|------------------------------------------------|
G|-/10-10-10-10-10-10-10--10---10--10------10--10-|
D|-/10-10-10-10-10-10-10--10-----------10---------|
A|-/8--8--8--8--8--8--8---8-----------------------|
E|------------------------------------------------|
pm---------------->

Rhytm. Fig 7

E|--------------------------------------
B|--------3------------------------------
G|--1-----0----2---------------------------
D|--2-----0----2---------------------------
A|--2----------0--------------------------
E|--0-----3-------------------------------




Riff II

E|-------------------------------------|
B|--5-p0--3-p0-------------------------|
G|--------------2-p0-------------------|
D|-------------------2~-\--------------|
A|-------------------------------------|
E|-------------------------------------|

Riff IIIa

E|-------------------------------------|
B|-8-7-5-7--5\-------------------------|
G|-------------------------------------|
D|-------------------------------------|
A|-------------------------------------|
E|-------------------------------------|

Riff IIIb

E|-10-9-7-9--7\------------------------|
B|-------------------------------------|
G|-------------------------------------|
D|-------------------------------------|
A|-------------------------------------|
E|-------------------------------------|

Riff IV

E|--0--0--0--0--0--0---|--0-------------------|
B|-8--7--5--3--5--7----|--8-------------------|
G|---------------------|----------------------|
D|---------------------|----------------------|
A|---------------------|----------------------|
E|---------------------|----------------------|




FreedomFighter
Veterano
# jun/04
· votar


Rainmaker - Começo
Base: D Bb D C D Bb C D


|-------------------------|-----------------------------|
|-------------15----------|-----------------------------|
|----------14----------17-|-(17)-------15-(15)-12-14----|
|-12-14-15-------12-14----|------12-14---------------15-|
|-------------------------|-----------------------------|
|-------------------------|-----------------------------|

|-------------------------|-----------------------------|
|-------------15----------|-----------------------------|
|----------14----------17-|-(17)-------15-(15)-12-14----|
|-12-14-15-------12-14----|------12-14---------------15-|
|-------------------------|-----------------------------|
|-------------------------|-----------------------------|

|-------------------------|-----------------------------|
|-------------15----------|-----------------------------|
|----------14----------17-|-(17)-------15-(15)-12-14----|
|-12-14-15-------12-14----|------12-14---------------15-|
|-------------------------|-----------------------------|
|-------------------------|-----------------------------|

|--------------------------|---------------------------|
|--------------15----------|---------------15----------|
|-----------14----14-------|------------14----14-------|
|-12--14-15----------15-12-|-(12)-14-15----------15-12-|
|--------------------------|---------------------------|
|--------------------------|---------------------------|

|--------------------|--------------------|
|--------------------|--------------------|
|--------------------|--------------------|
|-(12)---------------|--------------------|
|--------------------|--------------------|
|--------------------|--------------------|


pagode nem morto
Veterano
# jun/04 · Editado por: pagode nem morto
· votar


The Wicker Man


guitarra 1:

e------------------------------------------------------
B------------------------------------------------------
G---9-9---------9-9-----------9-9-----------5-5---7-7--
D---7-7---------7-7-----------7-7-----------5-5---5-5--
A---7-7---------7-7-----------7-7-----------3-3--------
E-x-0-0-0-0-0-0-0-0-0-0-0-0-0-0-0-0-0-0-0-0------------



guitarra 2:

e------------------------------------------------------
B------------------------------------------------------
G---9-9---------9-9-----------9-9-----------5-5---7-7--
D---7-7---------7-7-----------7-7-----------5-5---5-5--
A---7-7---------7-7-----------7-7-----------3-3--------
E-x-0-0---------0-0-----------0-0----------------------


Agente Smith
Veterano
# jun/04
· votar



Revelations:
SOLO 1: (Dave)

|-------------------------s/7--7h8p7------------------------------|
|-------------------------------------8h10p8----------------------|
|--7b(9)r7-p5--7~-s\--------------------------7h9p7--7b(9)r7p5-7~-|
|-----------------------------------------------------------------|
|-----------------------------------------------------------------|
|-----------------------------------------------------------------|


|-----s/12--15-hold--15p13p12---------------------------|
|------------------------------15b(17)r15-p13-----------|
|----------------------------------------------14~------|
|-------------------------------------------------------|
|-------------------------------------------------------|
|-------------------------------------------------------|


|--15--15p13p12--15p13p12--15p13p12--15--15p13p12-----------------|
|--------------------------------------------------13-------------|
|------------------------------------------------------14~-s\-----|
|-----------------------------------------------------------------|
|-----------------------------------------------------------------|
|-----------------------------------------------------------------|


|-----------------------20--20--20-----------20-------------------|
|----------17--20b(22)--------------20b(22)------20b(22)~---------|
|----s/19---------------------------------------------------------|
|-----------------------------------------------------------------|
|-----------------------------------------------------------------|
|-----------------------------------------------------------------|


|----------20b(22)--20b(22)r20-p17-----------20--20p19p17---------|
|--20--17---------------------------20b(22)-----------------------|
|-----------------------------------------------------------------|
|-----------------------------------------------------------------|
|-----------------------------------------------------------------|
|-----------------------------------------------------------------|


|--20p19p17--20p19p17--20p19p17-----------------------------------|
|--------------------------------20p17--20p19p17--20p19p17--------|
|-----------------------------------------------------------------|
|-----------------------------------------------------------------|
|-----------------------------------------------------------------|
|-----------------------------------------------------------------|


|-------------------------------------------------------|
|--20p19p17--20b(22)--20p18p17--20p18p17----------------|
|-----------------------------------------19b(21)-------|
|-------------------------------------------------------|
|-------------------------------------------------------|
|-------------------------------------------------------|


|---------------------------------------------|
|---------------------------------------------|
|--17--19--17--19b(20)--19--17----------------|
|--17--19--17--19b(20)--19--17--19~-----------|
|---------------------------------------------|
|---------------------------------------------|

SOLO 2: (Adrian)

|-------------------------------------------------------|
|-------------------------PH----------------------------|
|-------------------------7b(9)----7--5-----------------|
|--5h7p5h7p5h7p5h7p5h7p5-----------------7~-------------|
|-------------------------------------------------------|
|-------------------------------------------------------|


|-------------------------------------------------------|
|-------------------------------------------------------|
|--5b(7)------------------------------------------------|
|---------7--5------------------------------------------|
|---------------7-s\-5-p3--------------s/5--7~~---------|
|--------------------------5~---------------------------|


|-----------------------------------------------------------------|
|-----------------------------------------------------------------|
|------------0h5b(7)~----5b(7)--7--7p5-------s/9--s/12--s/14------|
|-----0h5h7-----------------------------7~------------------------|
|--7--------------------------------------------------------------|
|-----------------------------------------------------------------|


|-----------15----------------------------------------------------|
|--15b(17)------15b(17)r15-p13------------13-s\-------------------|
|-------------------------------14~----14-------------------------|
|-----------------------------------------------------------------|
|-----------------------------------------------------------------|
|-----------------------------------------------------------------|


|----------------------------17-----------------17----------------|
|--s/-17--20--20p17--20b(22)-----20p17--20b(22)-----20b(22)~------|
|-----------------------------------------------------------------|
|-----------------------------------------------------------------|
|-----------------------------------------------------------------|
|-----------------------------------------------------------------|


|----------------------17-----------17-----------17---------------|
|-----20--20--20b(22)------20b(22)------20b(22)------20b(22)------|
|-----------------------------------------------------------------|
|-----------------------------------------------------------------|
|-----------------------------------------------------------------|
|-----------------------------------------------------------------|


|--17~--h20p17h19p17------17h20p17h19p17------17h20p17h19p17------|
|---------------------20------------------20----------------------|
|-----------------------------------------------------------------|
|-----------------------------------------------------------------|
|-----------------------------------------------------------------|
|-----------------------------------------------------------------|


|-----17h20p17--20b(22)--20b(22)--20b(22)--20b(22)~~--------------|
|--20-------------------------------------------------------------|
|-----------------------------------------------------------------|
|-----------------------------------------------------------------|
|-----------------------------------------------------------------|
|-----------------------------------------------------------------|


FreedomFighter
Veterano
# jun/04
· votar


.

Agente Smith
Veterano
# jun/04
· votar


Killers


Dave's Solo:

(see) (see) (see)
|--------------------------------------------------------------------|
|--13b(15)----13b(15)----13b(15)-------------------------------------|
|----------------------------------14b(16)-(16)-(15)-14--12--14b(16)-|
|--------------------------------------------------------------------|
|--------------------------------------------------------------------|
|--------------------------------------------------------------------|

|-----------12-15-12---12-----------12-------------------------------- ---|
|--15b(17)-----------x------15b(17)----15-12-15p12-------------------- ---|
|--------------------------------------------------14b(16)-14-12---12h 14-|
|----------------------------------------------------------------14--- ---|
|--------------------------------------------------------------------- ---|
|--------------------------------------------------------------------- ---|

The open B is hardly heard as the high notes should be
hammered very quickly.
|----------------------------------------12--------------------------- ---|
|----------------0h15h17--0h15h17--14p12-----0h15h17--0h15h17--14p12-- ---|
|-14b(16)-(16)\------------------------------------------------------1 4~-|
|--------------------------------------------------------------------- ---|
|--------------------------------------------------------------------- ---|
|--------------------------------------------------------------------- ---|

|-------------------14h15p14h15p14h15p14h17p15p14h15p14----------14p12 -------|
|---------14h16h17--------------------------------------17p15--------- -15p14-|
|--14/16------------------------------------------------------15------ -------|
|--------------------------------------------------------------------- -------|
|--------------------------------------------------------------------- -------|
|--------------------------------------------------------------------- -------|

Concentrate on strumming 16th notes on the
open E string and quickly dart in and out with
the high notes.
|---------------0-0---12-0-0-14-14-0-15--17-15-14--0-0--12---|
|--12--(12)\--0----------------------------------------------|
|------------------------------------------------------------|
|------------------------------------------------------------|
|------------------------------------------------------------|
|------------------------------------------------------------|


|--12-0-0-14-0-0-15-15-0-0-17-15-14-0-0-12--12-12-0-0-14-14-0-0--|
|----------------------------------------------------------------|
|----------------------------------------------------------------|
|----------------------------------------------------------------|
|----------------------------------------------------------------|
|----------------------------------------------------------------|

|--15-15-17-17-15-14-0-0--12-12-0-0-14-14-0-0-15-15-17-15-14-14-0-0--|
|--------------------------------------------------------------------|
|--------------------------------------------------------------------|
|--------------------------------------------------------------------|
|--------------------------------------------------------------------|
|--------------------------------------------------------------------|

|--12-0-0-14-0-0-15-15-0-0-17-14-15p14--17p14--17p14--17p14--17p14--|
|-------------------------------------------------------------------|
|-------------------------------------------------------------------|
|-------------------------------------------------------------------|
|-------------------------------------------------------------------|
|-------------------------------------------------------------------|


|--17p14--17p14--17p14--14--17b(19)r17--17b(19)--17b(19)--17b(19)--|
|------------------------------------------------------------------|
|------------------------------------------------------------------|
|------------------------------------------------------------------|
|------------------------------------------------------------------|
|------------------------------------------------------------------|

Adrian's solo:

|-----------------------------------------------------|
|--15-------15----------------------------------------|
|--14b(16)--14--12-----12--14b(16)--14p12--14b(16)~~--|
|------------------14---------------------------------|
|-----------------------------------------------------|
|-----------------------------------------------------|

|----------12-----------------12-----------------12---------|
|--------------15p12--------------15p12--------------15p12--|
|--14b(16)------------14b(16)------------14b(16)------------|
|-----------------------------------------------------------|
|-----------------------------------------------------------|
|-----------------------------------------------------------|

|----------12--15b(18)r15-----------------------12-----|
|--------------------------------------------------12--|
|--14b(16)--------------------12h14--14b(16)-14--------|
|------------------------------------------------------|
|------------------------------------------------------|
|------------------------------------------------------|

Hold the bends on the 3rd string to get the unison bend sound.
|----------14-------------15-------------------------------|
|-------------14-------------15----------17------17--------|
|--16b(18)--------17b(19)--------19b(21)----(21)----(21)~--|
|----------------------------------------------------------|
|----------------------------------------------------------|
|----------------------------------------------------------|

|--0--0--20b(22)--------r20-----------------7---------------|
|----------------------------17\---10b(12)----7--10------7--|
|---------------------------------------------------9-------|
|------------------------------------------------------9----|
|-----------------------------------------------------------|
|-----------------------------------------------------------|

|-------------------------------------------------------------------|
|-------------------------------------------------------------------|
|--10p9--7---9b(11)--7-7~------------------2--4--5--4h5p4----7b(9)~-|
|----------9----------------------2--4--5------------------5--------|
|----------------------------3--5-----------------------------------|
|-------------------------------------------------------------------|

Overdub:
|-------------------------------------------------------------------|
|---------------------------------------------3--5--3h5p3----7b(8)~-|
|------------------------------------2--4--5---------------4--------|
|----------------------------2--4-5---------------------------------|
|-------------------------------------------------------------------|
|-------------------------------------------------------------------|






Mr Fernando
Veterano
# jun/04
· votar


aee galera por favor se alguém tiver tabs dos solos dessas musicas Postem!!
brave new world ( rock in rio 3 )
hallowed be thy name ( rock in rio 3 )
2 minutes to midnight ( rock in rio 3 )
Fear of the dark ( rock in rio 3)
são todos meio improvisados.. valeu!

Bunda_irons_
Veterano
# jun/04
· votar


Flght of icarus
intro

e------------------------------------------------------
B------------------------------------------------------
G------------------------------------------------------
D-7--2--4-x-x-x----------------------------------------------
A-7--2--4-x-x-x----------------------------------------------
E-5-----2-x-x-x---------------------------------------------


Enviar sua resposta para este assunto
        Tablatura   
Responder tópico na versão original
 

Tópicos relacionados a "Iron Maiden"