...::TRUQUES E SOLOS GUNS N' ROSES::...

Autor Mensagem
DeFoDoN
Veterano
# mai/04


ae galera....to fazendo esse topico pra colocar alguns truques, solos, intro das musicas do guns, espero que v6 tbm colaborem enviando as intro das suas musicas prediletas...flwwww

DeFoDoN
Veterano
# mai/04
· votar


SOLO DA DON´T CRY

e------------------------------------------------------
B--------------------------8---------------8--8--------
G-----7b--5--7--7b--5--7b------7b--5--7b---------------
D-7----------------------------------------------------
A------------------------------------------------------
E------------------------------------------------------


[T]
e------------------------------------------------------
B------------------------------------------------------
G--7b--5b¹/4----------------------7/9---9/10-----------
D--------------7--5------------------------------------
A--------------------5b¹/²---3----5/7---7/8---8/10-----
E------------------------------------------------------


[T]
e------------------------------------------------------
B----------------------------------13b²--13------------
G--------------------------12--14-------------14--12---
D---------10/12---12--14-------------------------------
A-10/12------------------------------------------------
E------------------------------------------------------

[T]
e------------------------------------------------------
B------------------------------------------------------
G------------------------------------------------------
D-14-13--14-13-12-13-12-10--12-10---------10¹/4--------
A----------------------------------12-10----------12---
E------------------------------------------------------

[T]
e--------------15-15-15--------------15-15-------------
B---------15b------------15b-13-15b----------15b--13-12
G------------------------------------------------------
D------------------------------------------------------
A-10-12------------------------------------------------
E------------------------------------------------------

[T]
e----------------------------------13------------------
B---------12--15-13-12-13-------------13--15b--15------
G-----13-------------------14--------------------------
D-14---------------------------15----------------------
A------------------------------------------------------
E------------------------------------------------------

[T]
e------------------------------------------------------
B-15b--13-------10----------------x--x---8-------------
G----------12b------12--9--7b--5--x--x---7b------------
D------------------------------------------------------
A------------------------------------------------------
E------------------------------------------------------


nos solos...¹/², ¹/4, eh a elevação da nota q vc tem q dah...

DeFoDoN
Veterano
# mai/04
· votar


PRIMEIRO SOLO
Knockin' On Heaven's Door


[T]
e------------------------------------------------------
B----------------15------------------------------------
G-12--14b-12-14------14b-12-12-------12--15/17--15-----
D-------------------------------/14--------------------
A------------------------------------------------------
E------------------------------------------------------

[T]
e----------------------------------------15------------
B-13-12-13b---13-12-13--12--------12-13------13---12---
G------------------------------------------------------
D----------------------------14------------------------
A------------------------------------------------------
E------------------------------------------------------

[T]
e-----15--17b-17-17b--17b-17b¹/²---15---20b--20-19-20--
B-17---------------------------------------------------
G------------------------------------------------------
D------------------------------------------------------
A------------------------------------------------------
E------------------------------------------------------

[T]
e-19-20b---20--19-20-20--------------------------------
B------------------------17------------------20--------
G------------------------------19b---------------------
D-----------------------------------19b--17------------
A------------------------------------------------------
E------------------------------------------------------

DeFoDoN
Veterano
# mai/04
· votar


colokem alguma coisa ae galera

vAsKiNhU tHe TrOoPeR
Veterano
# mai/04
· votar


pow kra,btei mta feh nessa sua iniciativa...soh naum coloko nda pq...err...sow iniciant ainda eheh i valeu ae,tava com duvidas em dont cry!

Agente Smith
Veterano
# mai/04
· votar


LOKO! Dakiapoko eu posto o solo de Welcome To The Jungle(- parte slide) Bele?

nothing else matters
Veterano
# mai/04
· votar



PRIMEIRO SOLO
Knockin' On Heaven's Door

[T]
e------------------------------------------------------
B----------------15------------------------------------
G-12--14b-12-14------14b-12-12-------12--15/17--15-----
D-------------------------------/14--------------------
A------------------------------------------------------
E------------------------------------------------------

[T]
e----------------------------------------15------------
B-13-12-13b---13-12-13--12--------12-13------13---12---
G------------------------------------------------------
D----------------------------14------------------------
A------------------------------------------------------
E------------------------------------------------------

[T]
e-----15--17b-17-17b--17b-17b¹/²---15---20b--20-19-20--
B-17---------------------------------------------------
G------------------------------------------------------
D------------------------------------------------------
A------------------------------------------------------
E------------------------------------------------------

[T]
e-19-20b---20--19-20-20--------------------------------
B------------------------17------------------20--------
G------------------------------19b---------------------
D-----------------------------------19b--17------------
A------------------------------------------------------
E------------------------------------------------------

ajeitei pra tu


Rodolfo Costas Alonso
Veterano
# mai/04
· votar


tem esse dake da knockin on heavens door tbm q o guns toco ao vivo, acho melhor doq esse dae

-----------------------------------|
--------------------------15-------|
---------12--14r-12-14~------14r---|
-------x---------------------------|
-----x-----------------------------|
---x-------------------------------|

---------------------------------|--------------------------------|
---------------------------------|--15b--15~--13-12-13b-----13h12-|
--------12-14----12-12~-------12-|--------------------------------|
--------------14-----------14----|--------------------------------|
---------------------------------|--------------------------------|
---------------------------------|--------------------------------|

--------------------------15----|--------------15-17b-17~---17r-15---- |
--13---12-----------12-13----13-|--12----15/17---------------------17- |
--------------------------------|------------------------------------- |
----------14~-------------------|------------------------------------- |
--------------------------------|------------------------------------- |
--------------------------------|------------------------------------- |

--15-17-15----15~----17b----17r-15--|---------15---------------------- ---------|
-----------17-----17----------------|--15b-------15b-15---13h12-12-13- 12-13h12-|
------------------------------------|--------------------------------- ---------|
------------------------------------|--------------------------------- ---------|
------------------------------------|--------------------------------- ---------|
------------------------------------|--------------------------------- ---------|

-------------------------------------------------------|
-----12----15------------------------------------------|
--14----14b---14r12h14-12-14r-14-12----12-------12-----|
------------------------------------14----12-12b-------|
---------------------------------------------------12~-|
-------------------------------------------------------|

Motley Crue
Veterano
# mai/04
· votar



-----------------------------------|
--------------------------15-------|
---------12--14r-12-14~------14r---|
-------x---------------------------|
-----x-----------------------------|
---x-------------------------------|

---------------------------------|--------------------------------|
---------------------------------|--15b--15~--13-12-13b-----13h12-|
--------12-14----12-12~-------12-|--------------------------------|
--------------14-----------14----|--------------------------------|
---------------------------------|--------------------------------|
---------------------------------|--------------------------------|

--------------------------15----|--------------15-17b-17~---17r-15---- |
--13---12-----------12-13----13-|--12----15/17---------------------17- |
--------------------------------|------------------------------------- |
----------14~-------------------|------------------------------------- |
--------------------------------|------------------------------------- |
--------------------------------|------------------------------------- |

--15-17-15----15~----17b----17r-15--|---------15---------------------- ---------|
-----------17-----17----------------|--15b-------15b-15---13h12-12-13- 12-13h12-|
------------------------------------|--------------------------------- ---------|
------------------------------------|--------------------------------- ---------|
------------------------------------|--------------------------------- ---------|
------------------------------------|--------------------------------- ---------|

-------------------------------------------------------|
-----12----15------------------------------------------|
--14----14b---14r12h14-12-14r-14-12----12-------12-----|
------------------------------------14----12-12b-------|
---------------------------------------------------12~-|
-------------------------------------------------------|


dando uma arrumada ae pra galera...

DICA DO DIA: quando for postar uma tab coloque no comeco [*T], e no final da tab, quando tiver terminado todas as tabs, coloque [/T*], sem os astericos.. nao precisa fazer como DeFoDoN fez colocando [*T] varias vezes, no comeco de cada parte da tab, um soh no comeco e o [/T*] no final sao suficiente

Rodolfo Costas Alonso
Veterano
# mai/04 · Editado por: Rodolfo Costas Alonso
· votar


***ia fala merda.

Rodolfo Costas Alonso
Veterano
# mai/04
· votar


 --3----------------|----------------------------------------|

--3----------------|----------------------15----------------|
--0----------------|--------12-12~-----------14b--14r-12----|
--0----------------|--12h14---------14-12----------------14-|
--x----------------|----------------------------------------|
--3----------------|----------------------------------------|

----------------------------------------|----------------------------- -|
----------------------15----------------|--13b---13b---13------------- -|
--------12-12~-----------14b--14r-12----|--------------------14r-12--- -|
--12h14---------14-12----------------14-|---------------------------14 -|
----------------------------------------|----------------------------- -|
----------------------------------------|----------------------------- -|

--------------------|----------------------------------------|
--------------------|----------------------15----------------|
--14~---------------|--------12-12~-----------14b--14r-12----|
--------------------|--12h14---------14-12----------------14-|
--------------------|----------------------------------------|
--------------------|----------------------------------------|

----------------------------------------|-------------15-----------------|
----------------------15----------------|--13b---13b-----13r-13--12h13-12|
--------12-12~-----------14b--14r-12----|--------------------------------|
--12h14---------14-12----------------14-|--------------------------------|
----------------------------------------|--------------------------------|
----------------------------------------|--------------------------------|

esse riff eh o meu preferido
paradise city

Agente Smith
Veterano
# mai/04
· votar



e------------------------------------------------------
B---------------------------3p2p0---------------------------
G----------------------------------2p0--------------------
D-----------------------2--------------2p0------2-----------
A-------2p0-------2-----0-----------------------2------------
E-0-3h4-----0-3h4-0-3h4---------------------3b--0---------------------


mr brownstone

DeFoDoN
Veterano
# mai/04
· votar


vAsKiNhU tHe TrOoPeR
hehehehe
eh issu ae galera....vlw ae

DeFoDoN
Veterano
# mai/04
· votar


LIVE AND LET DIE
naum vo por tdo, vo por os acordes da parte calma i vo por a parte loka q combina guitarra com trompete
acordes:G, Bm7, C, D
a outra parte eh G, Bm7, C, A, D
parte loka
[*T]
e------------------------------------------------------
B-----------15-----------10----------------------------
G-12---14---15---7---9---10---5--3--0------------------
D-12---14---15---7---9---10---5--3--0------------------
A------------------------------------------------------
E------------------------------------------------------
[/T]


e------------------------------------------------------
B---------15---------10--------------------------------
G-12--14--15---7--9--10----5--3------------------------
D-12--14--15---7--9--10----5--3------------------------
A------------------------------------------------------
E------------------------------------------------------

SOLINHO LOKO
[T]
e--------10---12b----10--8--7--8-----------------------
B--10b----------------------------10b------------------
G---------------------------------------7--------------
D------------------------------------------------------
A------------------------------------------------------
E------------------------------------------------------
[/T*]

Sanctum Metal
Veterano
# mai/04 · Editado por: Sanctum Metal
· votar


Meu. Guns é 10!!

Sweet child o'Mine

------------------15------14------|------------------15------14------|
------15--------------------------|------15--------------------------|
----------14--12------14------14--|----------14--12------14------14--|
--12------------------------------|--12------------------------------|
----------------------------------|----------------------------------|
----------------------------------|----------------------------------|



------------------15------14------|------------------15------14------|
------15--------------------------|------15--------------------------|
----------14--12------14------14--|----------14--12------14------14--|
--14------------------------------|--14------------------------------|
----------------------------------|----------------------------------|
----------------------------------|----------------------------------|



------------------15------14------|------------------15------14------|
------15--------------------------|------15--------------------------|
--12------14--12------14------14--|--12------14--12------14------14--|
----------------------------------|----------------------------------|
----------------------------------|----------------------------------|
----------------------------------|----------------------------------|



------------------15------14------|------------------15------14------|
------15--------------------------|------15--------------------------|
----------14--12------14------14--|----------14--12------14------14--|
--12------------------------------|--12------------------------------|
----------------------------------|----------------------------------|
----------------------------------|----------------------------------|



------------------15------14------|------------------15------14------|
------15--------------------------|------15--------------------------|
----------14--12------14------14--|----------14--12------14------14--|
--12------------------------------|--12------------------------------|
----------------------------------|----------------------------------|
----------------------------------|----------------------------------|



------------------15------14------|------------------15------14------|
------15--------------------------|------15--------------------------|
----------14--12------14------14--|----------14--12------14------14--|
--14------------------------------|--14------------------------------|
----------------------------------|----------------------------------|
----------------------------------|----------------------------------|



------------------15------14------|------------------15------14------|
------15--------------------------|------15--------------------------|
--12------14--12------14------14--|--12------14--12------14------14--|
----------------------------------|----------------------------------|
----------------------------------|----------------------------------|
----------------------------------|----------------------------------|



--12--------------12------14------|--15------14------12--------------|
----------15----------------------|--------------------------15------|
------14------14------14------14--|------14------14------14------14--|
----------------------------------|----------------------------------|
----------------------------------|----------------------------------|
----------------------------------|----------------------------------|



--------------------|
--15----------------|
--14----------------|
--------------------|
--------------------|
--------------------|

\o/\o/\o/ GUNS N'ROSES \o/\o/\o/

DeFoDoN
Veterano
# mai/04
· votar


Sanctum Metal
guns eh mto loko cara
posta mais coisas ae

SlaxL
Veterano
# mai/04
· votar


Pow, mto legal essa inciativa msm, isso eh, pra quem gosta de Guns neh =P ..

Dps posto aki, agora to meio com pressa.
flwsss

Postem do Velvet Revolver tb !!

DeFoDoN
Veterano
# mai/04
· votar


SlaxL
mais posta msmo hein cara...huahahuhua

Sanctum Metal
Veterano
# mai/04
· votar


DeFoDoN
Essa é cabulosa, eu ainda não peguei totalmente

November Rain

|--20--------19------20b-|
|------------------------|
|------------------------|
|------------------------|
|------------------------|
|------------------------|



------20--19--20--15------15--|--16----15h16h15----15---------15-|
----------------------16------|-----------------18---------18----|
------------------------------|----------------------------------|
------------------------------|----------------------------------|
------------------------------|----------------------------------|
------------------------------|----------------------------------|



--16-15-16h15----------------15----------------------------|
--------------18-16----16-18----18-16-18-15-16-18-16-15-16-|
--------------------17-------------------------------------|
-----------------------------------------------------------|
-----------------------------------------------------------|
-----------------------------------------------------------|



----------------------------------------|--20--------19------20b-|
--15r-15r----15-16-18-15-16-18-15-------|------------------------|
----------17----------------------17----|------------------------|
----------------------------------------|------------------------|
----------------------------------------|------------------------|
----------------------------------------|------------------------|



------20--19--20--15------15--|--16----15h16h15----15---------------|
----------------------16------|-----------------18---------15-16-18-|
------------------------------|-------------------------------------|
------------------------------|-------------------------------------|
------------------------------|-------------------------------------|
------------------------------|-------------------------------------|



--15-16-15h16h15-------15-------15-------------------------15-16h15--- ----15----
-----------------18-16----16-18----18h16-18-16----15-16-18----------18 h16----16h
-----------------------------------------------17--------------------- ----------
---------------------------------------------------------------------- ----------
---------------------------------------------------------------------- ----------
---------------------------------------------------------------------- ----------



--15----------------------------------------------------------------|
-----18-16----15-16-18-15----16-15----------------------------------|
-----------17-------------17-------17-15-17-15h13h15h13h15h13-------|
--------------------------------------------------------------12----|
--------------------------------------------------------------------|
--------------------------------------------------------------------|



--20--------19------20b-|------20--19----------------|
------------------------|--------------20b-----15----|
------------------------|-------------------------17-|
------------------------|----------------------------|
------------------------|----------------------------|
------------------------|----------------------------|



----------------------------|--------20---------20-15-20-19-20-|
--15b-----15----18b-----16--|-----16---------------------------|
-------------17-------------|--17------------------------------|
----------------------------|----------------------------------|
----------------------------|----------------------------------|
----------------------------|----------------------------------|



--15-18-16-18-15-16h15----15-------15----15----15----|--20--------19-- ----20b-|
-----------------------18----16-18----16----16----16-|---------------- --------|
-----------------------------------------------------|---------------- --------|
-----------------------------------------------------|---------------- --------|
-----------------------------------------------------|---------------- --------|
-----------------------------------------------------|---------------- --------|



------20--19--20--15------15--|--16------15h16h15----15---------15-|
----------------------16------|-------------------18---------18----|
------------------------------|------------------------------------|
------------------------------|------------------------------------|
------------------------------|------------------------------------|
------------------------------|------------------------------------|



--18r-18b-------15----15--------|------------------------------------- -------|
-------------------16----16-----|------------------------------------- -------|
----------------------------17--|----15-17-17-15---------------------- -------|
--------------------------------|----------------17-16-15-15-15-13-15- 13-----|
--------------------------------|------------------------------------- ---15--|
--------------------------------|------------------------------------- -------|



--20--------19------20b-|------20--19--20--15------15--|
------------------------|----------------------16------|
------------------------|------------------------------|
------------------------|------------------------------|
------------------------|------------------------------|
------------------------|------------------------------|



--16------15h16h15----15---------15-|
-------------------18---------18----|
------------------------------------|
------------------------------------|
------------------------------------|
------------------------------------|



--15h16h18-15h16h18-15h16h18h16h15----16----15h16h15----15-----|
-----------------------------------18----18----------18----18r-|
---------------------------------------------------------------|
---------------------------------------------------------------|
---------------------------------------------------------------|
---------------------------------------------------------------|



---------------------15-15r---------|--20--------19------20b-|
--16----18--16-18-16----------15r---|------------------------|
-----17-----------------------------|------------------------|
------------------------------------|------------------------|
------------------------------------|------------------------|
------------------------------------|------------------------|



------20--19--20--15------15--|--16------15-------------------|
----------------------16------|-------------18----18r------16-|
------------------------------|----------------20-------------|
------------------------------|-------------------------------|
------------------------------|-------------------------------|
------------------------------|-------------------------------|



----------------------|--------------------||
--15r-------15--------|----------15b-------||
----------------------|--------------------||
----------------------|--------------------||
----------------------|--------------------||
----------------------|--------------------||



\o/\o/\o/ GUNS N'ROSES \o/\o/\o/

DeFoDoN
Veterano
# mai/04
· votar


BAD OBCESSION
INTRO
com slide
[*T]
e------------------------------------------------------
B------------------------------------------------------
G-0---3/2--0--3--0---3---2---0---3--0---3--2--0--3/--0-
D-0---3/2--0--3--0---3---2---0---3--0---3--2--0--3/--0-
A-0---3/2--0--3--0---3---2---0---3--0---3--2--0--3/--0-
E------------------------------------------------------
[/T]

[T]
e--------------------12--------------------------------
B-11-12--12---11-12--12--------------------------------
G--------12----------12--------------------------------
D--------12--------------------------------------------
A------------------------------------------------------
E------------------------------------------------------
[/T*]

DeFoDoN
Veterano
# mai/04
· votar


Sanctum Metal
essa eu tirei semana passada....to ajustando a mao cum a palheta pra toka na velocidade....mais eh mto loka

marcio_zav
Veterano
# mai/04
· votar


DeFoDoN
tira o * do [T] pra tab sai certa.....

DeFoDoN
Veterano
# mai/04
· votar


marcio_zav
mas ai ela vai sai junta....fika um cú pra le depois

Sanctum Metal
Veterano
# mai/04
· votar


DeFoDoN
He... Eu como umas notas ainda...

DeFoDoN
Veterano
# mai/04
· votar


Sanctum Metal
eu tbm...mto foda....huahuahua;....mais jah to feliz por t tirado

marcio_zav
Veterano
# mai/04
· votar


DeFoDoN
vai ficar como o Sanctum Metal fez...

DeFoDoN
Veterano
# mai/04
· votar


marcio_zav
????

marcio_zav
Veterano
# mai/04 · Editado por: marcio_zav
· votar


DeFoDoN
se vc tira o * fica como as tabs q o Sanctum posto....td certinho

DeFoDoN
Veterano
# mai/04
· votar


marcio_zav
ah tah...mais sei lah...ele copio a tab...eu naum...eu puis da minha kabeça

Agente Smith
Veterano
# mai/04
· votar


Achei no meu pc uma tab ultracorreta de Welcome to the jungle q eu tirei de uma revista de guitarra, mas não tem a base de um solo, mas o resto ta quase impecavel:



Guns N'Roses
Música : Welcome To The Jungle
Álbum : Appetite For Destruction

---------------------------------------------------------------------- ------------------------------------------------
Legenda:

h=Hammer-On
p=Pull-Off
/ ou \=slide
b=Bend de um tom
hb=Bend de meio tom
pb=Pré-Bend
r=Revert
~=Vibrato
( )=Deixar Soar
x=nota morta
P.M. ou M.=Palm-Mute
H.N.=Harmônico Natural(Pressionar o traste)
H.A.=Harmônico Articifial
@=Arpejo(Tocar corda por corda)

---------------------------------------------------------------------- ------------------------------------------------
Riff Intro(Guitarra 1)


P.M.---------------- P.M.----------------------------- P.M.-----------------------------
Eb|--------------------|---------------------------------|------------ ---------------------|
Bb|--------------------|---0-----0-----0-----0-----0---0-|------------ ---------------------|
Db|-4---4----4-4-4---4-|-4---4-2---2---------------------|-4-4-4-2-2-2 ---------------------|
Gb|--------------------|-------------4---4-2---2-0-------|------------ -4-4-4-2-2-2-0-0-----|
Ab|--------------------|-----------------------------2---|------------ -----------------2-0-|
Eb|--------------------|---------------------------------|------------ ---------------------|
\------------6 Vezes------------/ \--------------3 Vezes----------/



P.M.--------------------- P.M. P.M.-
|---------0---------|-----------------|--------------|---------------- ----------|
|-3-------0---------|-----------------|--------------|---------------- ----------|
|-2-------2---------|-4-4-4-4-4-4-4-4-|-4-4-4-4-4-4\-|-2-------2--2--- 0---------|
|-0-------2---------|-4-4-4-4-4-4-4-4-|-4-4-4-4-4-4\-|-2-------2--2--- 0---------|
|---------0---------|-2-2-2-2-2-2-2-2-|-2-2-2-2-2-2\-|-0-------0--0--- --------0-|
|-------------------|-----------------|--------------|------3hb------- --3--2----|

P.M.-
|---------------------------|
|---------------------------|
|-2-x-x----2--2---0---------|
|-2-x-x----2--2---0---------|
|-0-x-x----0--0-----------0-|
|-------3hb---------3--2----|
\---------2 Vezes---------/

E5

|-------------x--5----------------------|
|---------------------------------------|
|-2-------x-----------------------------|
|-2-------x-----------------------------|
|-0---0---x----------------------3p0----|
|-------------------------------------2-|


Riff Intro (Guitarras 2 e 3[A Partir do Compasso 4]):

B A G5 E B A

|--------------------|-------------------|------------------|--------- ------|-7------7\5-|-5-----5\-|
|--------------------|-------------------|------------------|--------- ------|-7------7\5-|-5-----5\-|
|--------------------|-------------------|------------------|--------- ------|-4------4\2-|-2-----2\-|
|---------------7--9-|-9hb-r--7~~~~~~(7)-|------------------|--------- ------|------------|----------|
|-7h9----------------|-------------------|-7h9-----------9\-|-2/////// //9-9-|------------|----------|
|--------------------|-------------------|------------------|--------- ------|------------|----------|


E D A B5 A5

|-0--------|-2--------0---|------------------------|-----5--5--------- ------|---------------------|
|-0--------|-3--------2---|-------------------3--5-|--5hb---5hb-r--3~~ ~-----|---------------------|
|-1--------|-2--------2---|-------------2--4-------|------------------ ---4\-|---------------------|
|-2--------|-0--------2---|-------2--4-------------|------------------ ------|---------------------|
|-2--------|----------0---|-2--4-------------------|------------------ ------|-7-7--5-7-7--7-5-4-2-|
|-0--------|--------------|------------------------|------------------ ------|-5-5--3-5-5--5-3-2-0-|
\-------3 Vezes-----/

A.H.
|------------------------------------|
|------------------------------------|
|-7b-rp5---7-5hb---------------------|
|--------7-------7-5-----------------|
|--------------------7-6-5\3-5-3-----|
|--------------------------------5-3-|


---------------------------------------------------------------------- --------------------------------


Riff Verso A(Guitarra 1)

P.M.-- P.M.------------ P.M.-- P.M----------- P.M--- P.M.----
|--------------------------|---------------------------|-------------- -------------|
|--------------------------|---------------------------|-------------- -------------|
|--------------------------|---------------------------|-------------- ---------7/9-|
|--------------------------|---------------------------|-------------- ---------7/9-|
|-0---0----0---0-----------|-0-0-0----0--0-0-----------|-0-0-0----0--0 -0-------5/7-|
|-------3hb------3--2--0-0-|-------3hb-------3--2--0-0-|-------3hb---- ---3--2------|
\---------2 vezes---------/


Riff Verso A(Guitarras 2 e 3)


A5 P.M.- P.M.--
|--------------------------|
|--------------------------|
|-2-x-x----2---2-----------|
|-2-x-x----2---2-----------|
|-0-x-x----0---0---5-4-----|
|-------3hb------3-3-2--0--|
\--------4 vezes---------/




Riff Verso B(Guitarra 1)


|-------------------------|-------------------------|
|-------------------------|-------------------------|
|-9-9-7---x-9---9---------|-9-9-7---x-9---9---------|
|-9-9-7---x-9---9-7--6--4-|-9-9-7---x-9---9-7--9--0-|
|-7-7-5---x-7---7-5--4--2-|-7-7-5---x-7---7-5--7----|
|-------------------------|-------------------------|
\-------3 vezes---------/


Riff Verso B(Guitarras 2 e 3)

E5 E5 E5
H.N.
|-------------------------|---------------------------|--------------- ------------|
|-------------------------|---------------------------|--------------- ------------|
|-9---7---x-9---7---------|-9-----7---x-9---7---------|-9-x-x-7---x-9- --7---------|
|-9---7---x-9---7---------|-9-----7---x-9---7---------|-9-x-x-7---x-9- --7---------|
|-7---5---x-7---5-5--4--2-|-7-7-7-5---x-7---5-5--4--2/|-7-x-x-5---x-7- --5-5--4--2/|
|-------------------------|---------------------------|--------------- ------------|
\----------2 vezes--------/

---------------------------------------------------------------------- -------------------------------


Riff Refrão(Guitarras 1,2 e 3)


C C/B C/A C/G D D/C# D/B D/A E5 E5
P.M. P.M.
|---------------------|---------------------|----------------------|-- --------------------|
|---------------------|---------------------|----------------------|-- --------------------|
|-5-------------------|-7-------------------|-9-9------------------|-- --------------------|
|-5-------------------|-7-------------------|-9-9------------------|-- --------------------|
|-3----2--------------|-5----4--------------|-7-7-5----------------|-7 -7-5----------------|
|-----------5----3----|-----------7----5----|-------6~~(6)\5-5-3-0-|-- -----6~~(6)\5-5-3-0-|
\------2 vezes-------/

|------------------------|
|------------------------|
|------------------------|
|------------------------|
|-7~~~-5~~~--------------|
|-----------6~~~-5--3--4-|


---------------------------------------------------------------------- -------------------------------

Riff Ponte(Guitarras 1,2 e 3):

D G D G
@ @ @ @
|--------------|-3----(3)\------|--------------------|---------------- ---|
|-7------------|-3----(3)\-6----|-7------8p7---------|-12--13\12------ -8-|
|-7-------5----|-4----(4)\-4hb--|-7------7-----------|-12--------\5--5 ---|
|-7-------3----|-5----(5)\------|-7------7----7--10--|-12------------- ---|
|-5------------|-5----(5)\------|-5--------------8---|-10------------- ---|
|--------------|-3----(3)\------|--------------------|---------------- ---|

D G D D7
@ @
|--------------------|------------------------|--------------|
|-7------------------|-12--13p12---------10\7-|-7------------|
|----7---------------|-12---------------------|-7------------|
|-------7--6--7--10--|-12---------12\10--10\7-|-7--------10--|
|----------------8---|-10---------------------|----------8---|
|--------------------|------------------------|--------------|


G F G F G F A G

|--------------------|-----------------------|-------------------|---- ---------------------|
|-12-12-12-12-12-10--|-12-12-12-12-12-12-10--|-------------------|---- ---------------------|
|-12-12-12-12-12-10--|-12-12-12-12-12-12-10--|-12-12-12-12-12-10-|-14- 14-14-14-14-14-14\12-|
|-12-12-12-12-12-10--|-12-12-12-12-12-12-10--|-12-12-12-12-12-10-|-14- 14-14-14-14-14-14\12-|
|--------------------|-----------------------|-10-10-10-10-10-8--|-12- 12-12-12-12-12-12\10-|
|--------------------|-----------------------|-------------------|---- ---------------------|


---------------------------------------------------------------------- ------------------------------
Riff Pré Solo(Guitarras 1,2 e 3):

N.C
P.M. M. P.M.
|-----------------|-------------------|
|-----------------|-------------------|
|-----------------|-------------------|
|---6/7-----9---9-|-9-6/7-----12~-12~-|
|---5/6-----9---9-|-9-5/6-----12~-12~-|
|-0-----0-0---0---|-------0-0---------|
\--------------2 Vezes--------------/


---------------------------------------------------------------------- ------------------------------
Riff Pós-Solo(Guitarras 1,2 e 3):

N.C. F#5 F5 F#5 G5 A5 G#5 A5 Bb5
P.M.----------------------------
|---------------------------------|--------------------|-------------- ----------|
|---------------------------------|--------------------|-------------- ----------|
|---------------------------------|--------------------|-------------- ----------|
|-6-6-6-5-5-5-5-4-4-4-3-3-2-2-1-1-|-4----3----4----5---|-7----6----7-- --8-------|
|-7-7-7-6-6-6-6-5-5-5-4-4-3-3-2-2-|-4----3----4----5---|-7----6----7-- --8-------|
|---------------------------------|-2----1----2----3---|-5----4----5-- --6----0--|
\------------4 Vezes------------/

---------------------------------------------------------------------- -------------------------------

Riff Final(Guitarras 1,2 e 3):

E5 D5 Bb5 A5 G5 A G E E7(#9)

|--------------------------|--------------0-------(0)-|
|--------------------------|--------------0-------(0)-|
|-9---7--------------------|-6---4---1----1-------(1)-|
|-9---7----8----7---5------|-7---5---2----2-------(2)-|
|-7---5----8----7---5------|-7---5---2----2-------(2)-|
|----------6----5---3---0--|-5---3---0----0-------(0)-|

---------------------------------------------------------------------- --------------------------------

Solo I(Guitarra 1):


|---------------------------|----------------------|------------------ ------|
|---------------------------|-12----------15~~~~~~-|--------------15-- -15~~-|
|-12/13-----------13--13~~~-|-12-13-x--x--16~~~~~~-|-12/13--------13-- -13~~-|
|-11/12---(12)-14-14--14~~~-|----14-x--x-----------|-11/12------------ ------|
|---------------------------|----------------------|------------------ ------|
|-------0-------------------|----------------------|-------0--0------- ------|



|-----------------15-15----|-------19bh--19-18-17b-|-(18)r17-15-16---- ------------|
|-(15)p12-14/15---15-15----|----17-----------------|---------------15~ ~~(15)\-15b-|
|-(13)----15/16---------\6/|/18--------------------|------------------ ------------|
|--------------------------|-----------------------|------------------ ------------|
|--------------------------|-----------------------|------------------ ------------|
|--------------------------|-----------------------|------------------ ------------|


H.A.
|-------------------------------------------|------------------------- -|
|-(15)-15p12--------------------------------|------------------------- -|
|------------14b-14hbrp12-14-12-------------|--------------8hb-------- -|
|-------------------------------14-14-------|----------------------11\ -|
|-------------------------------------13-13-|-12brp10----------------- -|
|-------------------------------------------|---------12-------------- -|


Solo I(Guitarras 2 e 3):

E

|---------------------|-------------------------|--------------------- ---|
|-------------9-------|-9-----------------------|--------------------- ---|
|-------------9-------|-9-----------------------|-----9-7-9-----9----- -9-|
|----9-7-9----9-----9-|-9-----------------------|-----9-7-9-----9----- -9-|
|----7--------7-----7-|-7--5\0---2-----------/7-|-----7-5-7-----7----- -7-|
|-0--0-----0-----0----|--------0---0-0-3\2p0----|-0-----------0----0-- ---|

E

|--------x-3-(3)p0---------|-----------0-----0-|------------0------|
|--------x-2-(2)-----------|-----------0-----0-|------/10---0--3-3-|
|---9----------------------|--------7----------|----7-----7----4-4-|
|-9-9----------------------|-9--9-9-9----------|----9----------5-5-|
|---7----------------------|-7--7-7-7----------|----7--------------|
|-----0------------3\2p0-0-|--------------0----|--0----------------|

D5 D#5 E5 D5 D#5 E5 D5 D#5 E5 D5 D#5 E5

|--------------------------------|-----------------------|
|--------------------------------|-----------------------|
|-7---8---9---7---8---9---7---8--|----7---8---9-----(9)\-|
|-7---8---9---7---8---9---7---8--|----7---8---9-----(9)\-|
|-5---6---7---5---6---7---5---6--|----5---6---7-----(7)\-|
|--------------------------------|-----------------------|


---------------------------------------------------------------------- ----------------------------

Solo II-Parte I(Guitarras 1[Solo],2 e 3[base]):


C#5 E B5 A5 B5 A5 B5 A5 B5 C5 C#5 E5 B5 (B5)A5 B5 A5 B5 A5 B5 C5
H.A.
|---------------|-----------------------|--------------------|-------- ----------------|
|---------------|-----------------------|--------------------|-------- -------------12-|
|---------------|-----------------------|-------9hb----11br~-|-(11)~-1 1brp9---9hb--11b|
|---------------|------------9-9hb-11~~-|-(11)~~----11-------|-------- ------11--------|
|-----7---9br~~-|-(9)~-7-7/11-----------|--------------------|-------- ----------------|
|-9~----9-------|-----------------------|--------------------|-------- ----------------|


C#5 E B5 A5 B5 A5 G E5 (E5)E5 E5 G# A B5

|----------------------------|-------------0-|-(0)---0---0---0-|------ ---------------|
|---(12)~---12---------------|----------5--5-|-(5)---3---2---0-|-2hbr- 2hb-0---0----0-|
|-pb(11)~-pb11-(11)p9--------|-------/6--6---|-----------------|-2hbr- 2hb-0h1-1-2-/4-|
|---------------------11-9~~-|-(9)\6---------|-----------------|------ ---------------|
|----------------------------|---------------|-----------------|------ ---------------|
|----------------------------|---------------|-----------------|------ ---------------|


B5 B5 A5 G E5

|-----------------|-------------------------|----------------|-------- ------------------|
|-(0)-0-0-0-0-2-4-|------------------15-15b-|-pb15r----------|-------- ------------------|
|-(4)-4-2-2-1-2-4-|-----------/4------------|-------14b-14br-|-14brp12 -----------14 \12-|
|-------------4-4-|-2brp0-2--0/4/12---------|----------------|-------- -14\12/14-(14)\12-|
|-----------------|-------------------------|----------------|-------- ------------------|
|-----------------|-------------------------|----------------|-------- ------------------|



F#5 E5 F#5 E5 F#5 E5 F#5

|-----------------------------|---------------|-------------|--------- --------------|
|-----------------------------|---------------|-------------|--------- --------------|
|-6b---r-4--------------------|---------------|-------------|--------- --------------|
|----------phb6---r-4---------|---------------|-------------|--------- --------------|
|---------------------4hb---r-|-2-------------|-------------|--------- --------------|
|-----------------------------|---4hb---r-0---|-2~~~~~~~~~~-|-(2)~~~~~ ~~~~~~~~~~~~~-|



---------------------------------------------------------------------- -----------------------------------------------
Solo II-Parte II(Guitarra 1):

B

|------------|-------|-------|---------x-|-x\x\(x)\x-|-(x)\x\(x)\x\x-- -|-(x)\x\------|
|-4----------|--4----|-(4)/x-|-----------|-----------|---------------- -|-------------|
|-4----------|--4----|-(4)/x-|-----------|-----------|---------------- -|-------------|
|-4----------|--4----|-(4)/x-|-----------|-----------|---------------- -|-------------|
|-2----------|-------|-------|-----------|-----------|---------------- -|-------------|
|------------|-------|-------|-----------|-----------|---------------- -|-------------|


Solo II-Parte II(Guitarra 2):

H.N----------------
@
|------|--------|-3-------3--(3)-|-(3)-------|----|------------------- -----|--------------------|
|------|--------|-3-----------3--|-(3)-------|----|------------------- -----|-2hbrp0---------2hb-|
|------|--------|-3--------------|--3--------|----|------------------- -x-x-|-2hbrp0---------2hb-|
|-1----|-(1)----|----------------|-----------|----|------------------- -x-x-|--------2-1-0h1-----|
|-2----|-(2)----|----------------|-----------|----|------------------- -x-x-|--------------------|
|------|--------|----------------|-----------|--3-|-(3)/12~~-12~~--10\ -----|--------------------|

Solo II-Parte II(Guitarra 3[A partir do compasso 6]):


H.N----------- P.M.-----------------------------
|--------------|----------------------------------|
|--------------|----------------------------------|
|----7-------7-|----------------------------------|
|--------------|----------------------------------|
|--------------|--7-7-7-6-6-6-6-5-5-5-4-4-3-3-2-2-|
|--------------|----------------------------------|



Enviar sua resposta para este assunto
        Tablatura   
Responder tópico na versão original
 

Tópicos relacionados a ...::TRUQUES E SOLOS GUNS N' ROSES::...