Angra - Carry On (introducao)

    Autor Mensagem
    hugoms
    Veterano
    # mai/04 · Editado por: hugoms


    aih... tava tirando carry on outro dia, nao sei se tah mal tirado, mas na tab q eu peguei, akele sweep da introducao tah meio dificil de sair... nao sei se eh paranoia minha, mas esse shape pra sweep nao dah mto certo na hora de subir... o lick consiste basicamente em subir e descer o sweep, q na tab, segue esse shape :

    (Am)
    ----------------------12--17----
    ------------------13-------------
    --------------14-----------------
    ----------14---------------------
    --12--15------------------------
    ---------------------------------

    aquela passagem da corda G pra corda D, ambos no 14o traste, complica um pouco, de cima pra baixo ateh dah pra fazer legal...

    o lick todo fica assim :

    (Am)
    -12-17-12----12----------------------------12-17--
    -----------13----13----------------------13--------
    -------------------14----------------14-----------
    ----------------------14----------14--------------
    -------------------------15-12-15-----------------
    --------------------------------------------------

    sugestoes ? eh assim mesmo q se faz esse sweep ou o kra q fez a tab aloprou? ehehe

    vlw ae, abracos

    flpmartin321
    Veterano
    # mai/04
    · votar


    eu tenho o solo dela em arquivo guitar pro certinho cara
    qq dia te passo pelo icq pk agora num dá... falow

    hugoms
    Veterano
    # mai/04
    · votar


    eu tbm ehehe... esse lick q eu botei aih eh exatamente como tah na tab .gp4 q eu tenho ake

    flpmartin321
    Veterano
    # mai/04
    · votar


    entao o que eu tenho eh diferente...

    king_arthur
    Veterano
    # mai/04
    · votar


    flpmartin321
    manda pra mim tb
    king_arthur66@hotmail.com

    Zakk_Wylde
    Veterano
    # mai/04
    · votar


    tenta fazer uma pestana entre as duas cordas

    Alan Matos
    Veterano
    # mai/04
    · votar


    hugoms

    Cara, desse jeito não está certo não. Na realidade ele faz isso com tapping no arpejo de Am e de G. Dá pra fazer com o sweep tbem, mas tem um padrão pra fazer.

    Eu gravei uma video aula da Carry On. Hoje o Sam vai me liberar um espaço pra eu poder postar meus vídeos. Você vai poder ver lá como q faz com o tapping e com o sweep.

    Alan Matos

    hugoms
    Veterano
    # mai/04
    · votar


    Alan Matos
    poize kra... fazer akela pestaninnha de baixo pra cima nao dah nao ehehe... tipo, vc poderia postar aih a tablatura usando tapping do jeito q ele faz? tapping sempre facilita as coisas ehehe.. =)
    vlw ae, []'s

    Alan Matos
    Veterano
    # mai/04
    · votar


    hugoms

    Pode deixar que eu coloco a tab mais daqui a pouco pra vc com o tapping e o sweep.

    hugoms
    Veterano
    # mai/04
    · votar


    up
    skece de mim naum =D

    yvo
    Veterano
    # mai/04
    · votar


    Alan Matos

    po se ele nao liberar tem como se passazr pra mim???

    marco_franklin@hotmail.com

    e avisa aki se vc for passar, pq a mensagem vai pro lixo eletronico automaticamente, ai eu procuro por ela =)

    Rafael Guitar
    Veterano
    # out/04
    · votar


    Ae pessoal faz com o tapping eh bem mais fácil , mais preciso e é mto estiloso... toco dos dois jeitos mas sou mais u tapping!!!

    Rafael Guitar
    Veterano
    # out/04
    · votar


    T T
    --12-17h12h8-12h8-----T---------------T----8h10|
    ------------------10-13h10----T---10-13h10-----|
    ---------------------------9-14h9--------------|
    -----------------------------------------------|
    -----------------------------------------------|
    -----------------------------------------------|

    T T
    ---15h10h7-10h7----T-------------T---7-|
    ----------------8-12h8----T---8-12h8---|
    -----------------------7-12h7----------|
    ---------------------------------------|
    ---------------------------------------|
    ---------------------------------------|

    Rafael Guitar
    Veterano
    # out/04
    · votar


    ixi saiu td fora!!! vo arruma!

    Rafael Guitar
    Veterano
    # out/04
    · votar


          T
    
    e----12-17h12h8----T----------------T----8h10----------
    B---------------10-13h10---T----10-13h10---------------
    G------------------------9-14h9------------------------
    D------------------------------------------------------
    A------------------------------------------------------
    E------------------------------------------------------


       T       T  
    
    e----15h10h7-10h7----T---------------T---7-------------
    B-----------------8-12h8-----T----8-12h8---------------
    G-------------------------7-12h7-----------------------
    D------------------------------------------------------
    A------------------------------------------------------
    E------------------------------------------------------


    Rafael Guitar
    Veterano
    # out/04
    · votar


    ixi saiu errado denovo pqp!!! na hora de toca u dá um hammer-on na casa 12 tapping na 17(duas Primeiras notas da tablatura)

    e na primeira nota(casa 15) da tablatura debaixo eh tapping tb!! qualquer dúvida minerim_sp@hotmail.com !! Flwss

      Enviar sua resposta para este assunto
              Tablatura   
      Responder tópico na versão original
       

      Tópicos relacionados a Angra - Carry On (introducao)