ESCALAS : O TÓPICO DEFINITIVO

Autor Mensagem
Agente Smith
Veterano
# abr/04


Ae caras, tive essa ideia de juntar todas as escalas que conhecemos neste topico, com sua formação(tipo tom,s,t,ts... e tbm em T 2m 3m...seis entenderam né?) e com suas digitaçoes. vamo ajudar ae, aqui vai a primeira como exemplo:

Escala Maior (T-2M-3M-4j-5j-6M-7M) Exemplos em F# (F#-G#-A#-B-C#-D#-F)
(T,T,s,T,T,T)->T=tom s=semi-tom

E|---------------------------1-2-4-
B|-----------------------2-4-------
G|-----------------1-3-4-----------
D|-----------1-3-4-----------------
A|-----1-2-4-----------------------
E|-2-4-----------------------------

E|-----------------------------4-6-7-
B|-----------------------4-6-7-------
G|-----------------3-4-6-------------
D|-----------3-4-6-------------------
A|-------4-6-------------------------
E|-4-6-7-----------------------------

E|-----------------------------6-7-9-
B|-----------------------6-7-9-------
G|-------------------6-8-------------
D|-------------6-8-9-----------------
A|-------6-8-9-----------------------
E|-6-7-9-----------------------------

E|------------------------------------9-11-
B|----------------------------9-11-12------
G|--------------------8-10-11--------------
D|-------------8-9-11----------------------
A|------8-9-11-----------------------------
E|-9-11------------------------------------

E|-------------------------------------------11-13-14-
B|----------------------------------11-12-14----------
G|-------------------------10-11-13-------------------
D|-------------------11-13----------------------------
A|----------11-13-14----------------------------------
E|-11-13-14-------------------------------------------


maggie
Veterana
# abr/04
· votar


Vou dar uma busca assim que tiver tempo. Grande iniciativa, Agente Smith.

Agente Smith
Veterano
# abr/04
· votar


Valeu!
Aqui Vai Outra:

Escala Pentatônica Maior (T-2M-3M-5j-6M-) Exemplos em F# (F#-G#-A#-C#-D#)

(T,T,2T+s,T)->T=tom s=semi-tom

E|---------------------2-4-
B|-----------------2-4-----
G|-------------1-3---------
D|---------1-4-------------
A|-----1-4-----------------
E|-2-4---------------------

E|---------------------4-6-
B|-----------------4-7-----
G|-------------3-6---------
D|---------4-6-------------
A|-----4-6-----------------
E|-4-6---------------------

E|---------------------6-9-
B|-----------------7-9-----
G|-------------6-8---------
D|---------6-8-------------
A|-----6-9-----------------
E|-6-9---------------------

E|--------------------------9-11-
B|---------------------9-11------
G|----------------8-11-----------
D|-----------8-11----------------
A|------9-11---------------------
E|-9-11--------------------------

E|-------------------------------11-14-
B|-------------------------11-14-------
G|-------------------11-13-------------
D|-------------11-13-------------------
A|-------11-13-------------------------
E|-11-14-------------------------------


Agente Smith
Veterano
# abr/04
· votar


Escala De Blues (T-3m-4j-4+-5j-7m)  Exemplos em F (F-G#-A#-B-C-D#)

(T+s,T,s,s,T+s)->T=Tom s=semi-tom

E|-------------------------1-4-
B|---------------------1-4-----
G|---------------1-3-4---------
D|-----------1-3---------------
A|-----1-2-3-------------------
E|-1-4-------------------------

E|-------------------------4-6-7-
B|---------------------4-6-------
G|---------------3-4-5-----------
D|-----------3-6-----------------
A|-------3-6---------------------
E|-4-6-7-------------------------

E|-------------------------6-7-8-
B|---------------------6-9-------
G|-----------------5-8-----------
D|-----------6-8-9---------------
A|-------6-8---------------------
E|-6-7-8-------------------------

E|-------------------------------8-11-
B|-----------------------9-11-12------
G|------------------8-10--------------
D|-----------8-9-10-------------------
A|------8-11--------------------------
E|-8-11-------------------------------

E|-------------------------------------11-13-
B|----------------------------11-12-13-------
G|----------------------10-13----------------
D|----------------10-13----------------------
A|-------11-13-14----------------------------
E|-11-13-------------------------------------


ae, pessoal, vamo colaborar, e se tiver algum erro me desculpem , eu sou iniciante em teoria e pessimo tbm.Corrijam -me caso tenha algum erro.

Fear of the dark
Veterano
# abr/04
· votar


A escala pentatônica tem 5 notas s/ a blue note e 6
notas com a mesma.
Montagem da Penta Maior:

I II III IV V VI
1 1 1,5 1 1,5

Montagem da Penta Menor:

I II III IV V VI
1,5 1 1 1,5 1

A blue note da penta maior é a 3b e a da penta menor
é a 4#, ou seja:
em relação à nota "A", teremos a nota "C" para penta
maior e a nota "D#" para penta menor, logo, somando
as idéias teremos:

Penta maior em "A"; (blue note)

A B C C# E F# A
1 1/2 1/2 1,5 1 1,5

Penta menor em "A" (blue note)

A C D D# E G A
1,5 1 1/2 1/2 1,5 1

Fear of the dark
Veterano
# abr/04
· votar


Desenho de escala penta menor de Am

E|--------------------5-8--||
B|----------------5-8------||
G|------------5-7----------||
D|--------5-7--------------||
A|----5-7------------------||
E|5-8----------------------||

use em outro lugar do braço e terá outro tom!

espero ter ajudado!

Agente Smith
Veterano
# abr/04
· votar


:]!!!!Vamo colabora pessoal!.

Ae, caso alguem tenha msn, fala com o leandro panucci pra pedir pra colocar alguma coisa sobre os modos gregos aqui.

Agente Smith
Veterano
# abr/04
· votar


UP!!!

Thiago ed
Veterano
# abr/04
· votar


:]!!!!Vamo colabora pessoal!.

cara eu naum entendu nada d escala, campo harmonico e nda d teoria...me professor me passo a pentatonica e soh...to esperando esse topico!!

Ice Bergh
Veterano
# abr/04
· votar


Up no guitar pro tem todas as escalas la

Agente Smith
Veterano
# abr/04
· votar


então cata alguma la pra nois cara

Fear of the dark
Veterano
# abr/04
· votar


Up no guitar pro tem todas as escalas la
se ele tambem montasse as escalas na tab seria mel na chupeta!

Ice Bergh
Veterano
# abr/04
· votar


ixe se for catar.. vo fica o dia inteiro vo ve se posto alguma.
escalas simples tb, em dó maior, re entre otroas.. ja volto

Agente Smith
Veterano
# abr/04
· votar


mde mel na chupeta eu fiz aqi 3 escalas. eu num to pedindo pra catar todas eu so to pedindo uma. se todos ajudarem a jente ia ter coisa pra kcet.

Agente Smith
Veterano
# abr/04
· votar


MODOS GREGOS(exemplos em G)

Jônio 

-------------------------------5-7-8-
-------------------------5-7-8-------
-------------------4-5-7-------------
-------------4-5-7-------------------
-------3-5-7-------------------------
-3-5-7-------------------------------

Dório
--------------------------------7-8-10-
-------------------------7-8-10--------
-------------------5-7-9---------------
-------------5-7-9---------------------
-------5-7-9---------------------------
-5-7-8---------------------------------

Frígio
-------------------------------------8-10-12-
-----------------------------8-10-12---------
----------------------7-9-11-----------------
---------------7-9-10------------------------
--------7-9-10-------------------------------
-7-8-10--------------------------------------

Lídio
------------------------------------------10-12-14-
---------------------------------10-12-13----------
-------------------------9-11-12-------------------
-----------------9-10-12---------------------------
---------9-10-12-----------------------------------
-8-10-12-------------------------------------------

Mixolídio
----------------------------------------------12-14-15-
-------------------------------------12-13-15----------
----------------------------11-12-14-------------------
-------------------10-12-14----------------------------
----------10-12-14-------------------------------------
-10-12-14----------------------------------------------

Eólio
----------------------------------------------14-15-17-
-------------------------------------13-15-17----------
----------------------------12-14-16-------------------
-------------------12-14-16----------------------------
----------12-14-15-------------------------------------
-12-14-15----------------------------------------------

Lócrio
----------------------------------------------15-17-19-
-------------------------------------15-17-19----------
----------------------------14-16-17-------------------
-------------------14-16-17----------------------------
----------14-15-17-------------------------------------
-14-15-17----------------------------------------------


Dave Murray
Veterano
# abr/04
· votar


http://www.cifraclub.com.br/forum/index.php?action=vthread&forum=3&t opic=31269

começando com uma exemplo... as notas da escala natural maior de DO sao: C D E F G A B.. ou seja, essas sao as notas q irao compor a escala natural maior de DO, podendo ser tocda qualquer casa q seja alguma dessas notas...
sabendo q a escala eh formada por essas notas, vc as identifica no braço e vai formando "desenhos" no braço...

Ex. em Do Maior:


E ---5---7-8--
B ---5-6---8--
G -4-5---7----
D ---5---7----
A ---5---7-8--
E ---5---7-8--


.
isso ae eh um exemplo de desenho da escala no braço...
pra vc saber as notas de outros toms, eh soh vc pegar essas notas de C eh eleva-las tantos tons ateh chegar onde vc quer... por exemplo, vc quer as notas de D.. ( C pra D = 1 tom) entao vc pega as notas de C e eleva todas elas em 1 tom.

Ex:

Natural Maior de C = C D E F G A B
Natural Maior de D = D E F# G A B C#

agora se vc quiser saber as de E, eh soh ver as de D e elevar 1 tom.. mas nao esquece q de E pra F / B pra C tem ½ tom...

isso ai eh pra escalas naturais MAIORES.. se vc souber elas, eutomaticamente vc sabe as MENORES naturais... pq? por causa das chamadas RELATIVAS... o 6º grau de uma nota eh a sua relativa menor... Ex: relativa de DO MAIOR = LA MENOR... portanto a escala MAIOR de DO eh exatamente igual a escala MENOR de LA... entendeu ?

Relativas:

C ---------- Am
C# --------- A#m
D ---------- Bm
D# --------- Cm
E ---------- C#m
F ---------- Dm
F# --------- D#m
G ---------- Em
G# --------- Fm
A ---------- F#m
A# --------- Gm
B ---------- G#m

agora existem variaçoes da escala natural menor.. q sao a MENOR HARMONICA e MENOR MELODICA... pra forma-las eh simples... vc pega a MENOR NATURAL, e:

Menor Harmonica: Eleva o 7º grau em ½ tom
Menor Melodica: Eleva o 6º e 7º graus em ½ tom

Ex.

Natural Menor de A: A B C D E F G
Menor Harmonica: A B C D E F G#
Menor Melodica: A B C D E F# G#

Se Quiser formulas pra identificaçao mais rapida das notas q compoem a escala, saca soh: [ t = 1 tom ] [ st = ½ tom ]

Natural Maior = T T ST T T T ST
Natural Menor = T ST T T ST T T
Menor Melodica = T ST T T T T ST
Menor Harmonica = T ST T T ST TST [TST= 1½ tom]

Motley Crue
Veterano
# abr/04
· votar


Ex. em Do Maior:


E ---5---7-8--
B ---5-6---8--
G -4-5---7----
D ---5---7----
A ---5---7-8--
E ---5---7-8--


essa eh a menor natural dave... ja falaram lah no outro topico, dah uma arrumada ae..=)

Dave Murray
Veterano
# abr/04
· votar


Motley Crue

Lá Natural Menor = Dó Natural Maior... esse exemplo eh sim de Do Maior... quando fala-se desse exemplo em natural menorm soh estah falando da relativa.. Am... ;]

Ice Bergh
Veterano
# abr/04
· votar


agora coloca como fixo

Agente Smith
Veterano
# abr/04
· votar


ATÉ Q ENFIN CRIEI UM TOPICU UTIL!

Ice Bergh
Veterano
# abr/04
· votar


segundo tópico fixo q consigo colocar eheh..
Minhas influencias
priemiro foi do guitar pro.
agora esse. viu
eu sou 1 minininho bonzinho.

Agente Smith
Veterano
# abr/04
· votar


Ice Bergha, mas a ideia foi minha!
valeu pela ajuda mais, eu sou o idealizador.

Ice Bergh
Veterano
# abr/04
· votar


hehe, os creditos foi pra vc. egheh
flwe

ziotti
Veterano
# abr/04 · Editado por: ziotti
· votar


Bom, la vão algumas escala exóticas que eu gosto muito. Escalas exoticas são akelas que possuem um som caracteristico de algum povo.

Escala Espanhola(T - 2m - 3M - 4J - 5J - 5#- 7m)

Exemplo em C(C C# E F G G# A#)
<pre>
e----------------------------------------9-12-13-------
B--------------------------------9-11-13---------------
G------------------------9-10-12-----------------------
D----------------8-10-11-------------------------------
A--------8-10-11---------------------------------------
E-8-9-12-----------------------------------------------
</pre>


Escala Persa(T - 2m - 3M - 4J - 4# - 5# - 7M)

Exemplo em C(C C# E F F# G# B)

e---------------------------------------9-12-13--------
B-------------------------------9-12-13----------------
G-----------------------9-10-11------------------------
D---------------9-10-11--------------------------------
A--------8-9-11----------------------------------------
E-8-9-12-----------------------------------------------



Escala Egipcia(T - 2M - 4J - 5J - 7m)

Exmeplo em C(C D F G A#)

e-----------------------------------------8-10-13------
B---------------------------------8-11-13--------------
G-------------------------7-10-12----------------------
D-----------------8-10-12------------------------------
A---------8-10-13--------------------------------------
E-8-10-13----------------------------------------------


gjsuzigan
Veterano
# abr/04
· votar


ow tipo......cria um topico DEFINITIVO sobre Campo Harmonico!!!!!!! VLW

Homem Cueca
Veterano
# abr/04
· votar


escala Harmônica
T 2 3m 4j 5j 6m 7

ex em A:

e---------------------------------7-8-10-------------------
B--------------------------6-9-10--------------------------
G--------------------5-7-9--------------------------------
D--------------6-7-9--------------------------------------
A--------5-7-8--------------------------------------------
E--5-7-8--------------------------------------------------

notas = A B C D E F G#
Escala Menor Melódica
T 2 3m 4j 5j 6 7

ex em A:

e--------------------------------7-8-10--------------------
B-------------------------7-9-10---------------------------
G-------------------5-7-9---------------------------------
D-------------6-7-9---------------------------------------
A-------5-7-9---------------------------------------------
E-5-7-8---------------------------------------------------


Homem Cueca
Veterano
# abr/04
· votar


notas = A B C D E F# G#

yvo
Veterano
# abr/04
· votar


ziotti

Cacete onde tu arranjo essas escalas? Gostei da espanhola

ziotti
Veterano
# abr/04
· votar


yvo
hehehe, loka né? vo procurar aki no meio da papelada da minha casa e assim q eu achar eu posto... tenho aki a napolitana menor, maior, espanhola de 8 tons...

vo procurar e amanha eu posto

Tuco_Hendrix
Veterano
# abr/04
· votar


Agente Smith
ae amigo confere tuas pentatoniscas maiores e de blues pq pra mim taum 1 tom e meio acima......
:-)

Enviar sua resposta para este assunto
        Tablatura   
Responder tópico na versão original
 

Tópicos relacionados a ESCALAS : O TÓPICO DEFINITIVO