Guitarra Clássica

Autor Mensagem
gunsnzeppelins
Veterano
# fev/04


Eu criei esse tópico com a intenção de conhecer melhor a guitarra clássica e de ajudar outras pessoas que também tem interesse sobre esse assunto.
Eu vou postar algumns licks, escalas e riffs clássicos, postem vocês também!

Logo abaixo, vocês veêm uma música clássica que eu estou criando, como nota chave "Em".
Ainda não criei uma introdução, mas esse é o início:

e12-12-12-12--10-10-10-10--8-8-8-8--7-7-7-7--5-5-5-5-
B----------------------------------------------------
G----------------------------------------------------
D----------------------------------------------------
A10-10-10-10--8--8--8--8---7-7-7-7--5-5-5-5--3-3-3-3-
E----------------------------------------------------


e-3-3-3-3--2-2-2-2--0--------------------------------
B-------------------0--------------------------------
G----------2-2-2-2--0--------------------------------
D-------------------2-----deixe-soar----ABAFE--------
A-2-2-2-2--2-2-2-2--2--------------------------------
E-------------------0--------------------------------


e-------------------8-11-8----8----------------------
B---------------7-10-------10---10-7-10-7---7--------
G-----------5-8---------------------------8--8-5-8-5-
D--------4-7----------------------------------------7
A----3-6---------------------------------------------
E2-5-------------------------------------------------


e------------------------------0---------------------
B------------------------------0---------------------
G-5----------------------------0---------------------
D---7-4-7-4---4----------------2---SOE-E-ABAFE-LEVEMENTE
A-----------6---6-3-6-3--3-----2---------------------
E----------------------5--5-2--0---------------------


e---------------------9-12-9---9---------------------
B----------------8-11--------11-11-8-11-8-8----------
G------------6-9-------------------------9-9-6-9-6---
D--------5-8---------------------------------------8-
A----4-7---------------------------------------------
E-3-6------------------------------------------------


e-----------------------1----------------------------
B-----------------------1----------------------------
G6----------------------1----------------------------
D-8-5-8-5-5-------------3--SOE-E-ABAFE-LEVEMENTE-----
A--------7-7-4-7-4-4----3----------------------------
E-----------------6-6-3-1----------------------------


e--------------------------------|-------------------
B--------------------------------|-------------------
G--------------------------------|-------------------
D-------7---------9----------11~/|REPETIR-DUAS-VEZES
A----6H9------8H11------10H13----|-------------------
E-5H8-----7H10------9H12---------|-------------------


Por enquanto, só criei isso, mas vou tentar inventar mais umas coisas legais. Quanto aquela primeira parte, tocando na corda A e na E, após cada vez que vc tocou, dê uma abafada com a mão esquerda, ou seja, não deve soar contínuo.
Vamos lá galera, postem seus riffs clássicos tmb, seus conhecimentos. Por enquanto é isso, daqui a pouco eu posto mais.

gunsnzeppelins
Veterano
# fev/04
· votar


Desculpe, é assim:


e12-12-12-12--10-10-10-10--8-8-8-8--7-7-7-7--5-5-5-5-
B----------------------------------------------------
G----------------------------------------------------
D----------------------------------------------------
A10-10-10-10--8--8--8--8---7-7-7-7--5-5-5-5--3-3-3-3-
E----------------------------------------------------

e-3-3-3-3--2-2-2-2--0--------------------------------
B-------------------0--------------------------------
G----------2-2-2-2--0--------------------------------
D-------------------2-----deixe-soar----ABAFE--------
A-2-2-2-2--2-2-2-2--2--------------------------------
E-------------------0--------------------------------

e-------------------8-11-8----8----------------------
B---------------7-10-------10---10-7-10-7---7--------
G-----------5-8---------------------------8--8-5-8-5-
D--------4-7----------------------------------------7
A----3-6---------------------------------------------
E2-5-------------------------------------------------

e------------------------------0---------------------
B------------------------------0---------------------
G-5----------------------------0---------------------
D---7-4-7-4---4----------------2---SOE-E-ABAFE-LEVEMENTE
A-----------6---6-3-6-3--3-----2---------------------
E----------------------5--5-2--0---------------------

e---------------------9-12-9---9---------------------
B----------------8-11--------11-11-8-11-8-8----------
G------------6-9-------------------------9-9-6-9-6---
D--------5-8---------------------------------------8-
A----4-7---------------------------------------------
E-3-6------------------------------------------------

e-----------------------1----------------------------
B-----------------------1----------------------------
G6----------------------1----------------------------
D-8-5-8-5-5-------------3--SOE-E-ABAFE-LEVEMENTE-----
A--------7-7-4-7-4-4----3----------------------------
E-----------------6-6-3-1----------------------------

e--------------------------------|-------------------
B--------------------------------|-------------------
G--------------------------------|-------------------
D-------7---------9----------11~/|REPETIR-DUAS-VEZES
A----6H9------8H11------10H13----|-------------------
E-5H8-----7H10------9H12---------|-------------------


gunsnzeppelins
Veterano
# fev/04
· votar


Qual é galera?! Eu sei que vcs tocam música clássica! Postem qualquer coisinha que vocês saibam, que seja clássico! Vamos lá!

Dogs
Veterano
# fev/04
· votar


Clássica ou Erudita?

crowley666
Veterano
# fev/04
· votar



e8--10--11--10--8--7--8--10--8--7--5--7--8--7--5--4--5--7--5
B-----------------------------------------------------------
G-----------------------------------------------------------
D-----------------------------------------------------------
A-----------------------------------------------------------
E-----------------------------------------------------------


gunsnzeppelins
Veterano
# fev/04
· votar


Clássica! Beethoven, Bach, Vivaldi, etc.

crowley666
Veterano
# fev/04
· votar


esse eh um lickizinho q eu fiz

crowley666
Veterano
# fev/04
· votar


gunsnzeppelins
bach eh tanto classico como barroco (eu prefiro barroco)

crowley666
Veterano
# fev/04
· votar


gunsnzeppelins
ouve baroque & roll do malmsteen

Dogs
Veterano
# fev/04
· votar


gunsnzeppelins
Clássica! Beethoven, Bach, Vivaldi, etc.

Isso é Erudita.
Música Clássica é uma música que marcou época, tipo Stairway To Heaven e Voodoochile, são músicas clássicas.
Música Erudita é aquela composta de sinfonias com arranjos de violino e tudo mais.

crowley666
Veterano
# fev/04
· votar


Dogs
mas tem o substilo de musica erudita chamado de musica classica, num tem?

gunsnzeppelins
Veterano
# fev/04
· votar


Aí vai outro (Malmsteen):

e---------13h15h16--------12h13h15--------10h12h13-----
B13h15h16---------12h13h15--------10h12h13-------------
G------------------------------------------------------
D------------------------------------------------------
A------------------------------------------------------
E------------------------------------------------------

e--------8h10h12------7h8h10-----5h6h8-----3h5h7-----1h3h5-1
B-810h12-------7h8h10-------5h7h8-----3h5h7-----1h3h5-------
G-----------------------------------------------------------
D-----------------------------------------------------------
A-----------------------------------------------------------
E-----------------------------------------------------------


gunsnzeppelins
Veterano
# fev/04
· votar


É, acho que é isso mesmo, mas Four Elise não marcou época? Quando a gente diz "Música Clássica", ao que estamos nos referindo? É disso que eu estou falando.

gunsnzeppelins
Veterano
# fev/04
· votar


Mas, Dogs posta alguma coisa aeh, vai!

Dogs
Veterano
# fev/04
· votar


gunsnzeppelins
Eu num sei de nenhuma
haeiehaeoaaeiaieauh

gunsnzeppelins
Veterano
# fev/04
· votar


Dogs
Nenhum riffzinho? Nenhum solinho?! Claro que sabe seu vagabundo (brincadeira)!
Vc não ouve METAL?! Tem que saber algo!
Pessoal
Vamos lá gente, seja lá o que vcs souberem que seja clássico, um lick, um riff, um solo, sei lá. Postem aeh! Eu vou postar umas coisas, e quero que vcs postem tb, hein?!

neopaganini
Veterano
# fev/04
· votar


num tem nada melhor q os caprices do paganini arranjados pra guitarra

gunsnzeppelins
Veterano
# fev/04
· votar


Essa é Barroca.

e-5h6p5--5---------------------------------------------
B------8--8-6-5---6-------5-------3-------1------------
G-------------------5-3-5---3-2-3---2-1-2--------------
D------------------------------------------------------
A-----------------5-------3-------1-------0------------
E------------------------------------------------------

e-5-3-1------------------------------------------------
B-------5-3-2--5-3-2--5-3-2--5-3-2---------------------
G----------------------------------3-2-0---------------
D----------------------------------------3-2-0---------
A------------------------------------------------------
E------------------------------------------------------

e-----------6------------1------------------------------
B------------------------------------6------------------
G-------------------------------------------------------
D-----------------------------------------------7-------
A-s5-5-3-5--3--s3-3-1-3--1-------------7-5-3----7-------
E--------------------------s6-6-5-6--5-------7--5-------



gunsnzeppelins
Veterano
# fev/04
· votar


neopaganini eu fiz uma versão do 5th Caprice, quer ver? Eu só vou copiar a tab pronta e colar, espera aeh...

Gab
Veterano
# fev/04
· votar


A Maior Parte Disso Que v6 postaram possui uma tecnica q quase nem prestamos atenção, e é uma das técnicas mais dificeis do Violão e Da Guitarra, o Contraponto!!! Mas Eu Soh Conhesso Um Riff Desses

e-----4-0-------0--------0---------------0---4---7---6--
B-0-2-----------------4--------------0---------------7--
G-------------1-1h2p1------------------------------8----
D---------2-4--------------2-1-----------------2-6----8-
A---------------------2--------4-2-0---------2----------
E------------------------------------4-2-0-4------------

Point Counterpoin Do Majestral Steve Morse!!!


Gab
Veterano
# fev/04
· votar


Eu Tenho Uma Revista Guitar Player Cheia De Transcriçoes Classicas, mas primeiro vou fazer a tab, depois posto aqui, ou amanha ou sabado que vem , Falo?

gunsnzeppelins
Veterano
# fev/04
· votar


Gab,
Falo

gunsnzeppelins
Veterano
# fev/04
· votar


Gab,
Falo

Gab
Veterano
# fev/04
· votar


Falô!!!

gunsnzeppelins
Veterano
# fev/04
· votar


Kd hein Gab? Kd os riffs clássicos?

faustomarlei
Veterano
# fev/04
· votar


gunsnzeppelins
legal sua composição. tava tocando ela aki

gunsnzeppelins
Veterano
# fev/04
· votar


faustomarlei
Valeu! Tmb achei ela massa, principalmente aquela parte tipo um arpejo decrescente e depois crescente...

faustomarlei
Veterano
# fev/04
· votar


gunsnzeppelins
exato. crescentes e decrescentes soam bem. espefialmente se vc conseguiir velocidade. prova e o crossroads guitar duel

Gab
Veterano
# fev/04
· votar


gunsnzeppelins, vo posta amanha , to trabalhando nas tabs de :

Sonata n 1 (js bach)
Quarteto de cordas (mozart)
romance n 1 opus 40 (beethoven) e
Caprice 16(pagannini , mas carma, to fazendo de poquinho em poquinho...

Gab
Veterano
# fev/04
· votar


Mas consegui terminar uma agora....
            Sonata n1 em g menor (j. S. Bach) 


-15t18p15p10t15p10-----------------------------
--------------------11t15p11-------------------
-----------------------------12t15p12----------
--------------------------------------12t17p12-
-----------------------------------------------
-----------------------------------------------

---------------------10-15p10---------------------10-14-
-------------------11---------13p11p10----------10------
-----------------12--------------------12p11--11--------
---------------12---------------------------12----------
-13t17p13p10h13-----------------------------------------
--------------------------------------------------------

-17---------------------------15-18p15------15-17p13------13-15p11-
----16o15p13----------------15--------16--16--------15--15---------
-------------15p14-12-----15------------17------------15-----------
---------------------12-17-----------------------------------------
-------------------------------------------------------------------
-------------------------------------------------------------------

------------15-14-15-17-------------------13-12-13-15
-13--13-16-------------13--13-11-13-15---------------11--11-10-11-13-
---14--------------------12-----------10---------------10-----------8
----------12----------------------------10---------------------------
---------------------------------------------------------------------
---------------------------------------------------------------------

---11-10-11-13---
--------------9--
-8---------------
-----------------
-----------------
-----------------



Você não pode enviar mensagens, pois este tópico está fechado.
 

Tópicos relacionados a Guitarra Clássica