Phantom Of the opera tab, pro SS

    Autor Mensagem
    Gab
    Veterano
    # fev/04



    * INTRO : The two guitars play the next riff 3 times
    E |--------------------------------------------------------------------- --
    B |--------------------------------------------------------------------- --
    G |------4-4-4-5p4---7-4---5-4------------------------------------------ --
    D |---/5-----------5-----5-----5-4-5-7/--------------------------------- --
    A |-------------------------------------2------------------------------- --
    E |--------------------------------------------------------------------- --

    Then,

    Guitar One play

    E |--------------------------------------------------------------------- --
    B |--------------------------------------------------------------------- --
    G |------4-4-4-5p4---7-4---5-4---------7-7-7-9-9-9/11-11-11/12-12-12---- --
    D |---/5-----------5-----5-----5-4-5-7---------------------------------- --
    A |--------------------------------------------------------------------- --
    E |--------------------------------------------------------------------- --

    E |----------------------------14-14-14-|--19p15----19p15----19p15------ --
    B |-12-12-12-13-13-13-15-15-15----------|--------17-------17-------17--- --
    G |-------------------------------------|------------------------------- --
    D |-------------------------------------|------------------------------- --
    A |-------------------------------------|------------------------------- --
    E |-------------------------------------|------------------------------- --


    E |---19p15----19p15----19p15----19p15----19/slide down-------------------
    B |---------17-------17-------17-------17------------------------------- --
    G |--------------------------------------------------------------------- --
    D |--------------------------------------------------------------------- --
    A |--------------------------------------------------------------------- --
    E |--------------------------------------------------------------------- --

    Guitar Two play

    E |--------------------------------------------------------------------- --
    B |------------------------------------------------------5-5-5/8-8-8---- --
    G |------4-4-4-5p4---7-4---5-4---------4-4-4-5-5-5-7-7-7---------------- --
    D |---/5-----------5-----5-----5-4-5-7---------------------------------- --
    A |--------------------------------------------------------------------- --
    E |--------------------------------------------------------------------- --

    E |-----------------------------|--15-------15-------15-------15-------- --
    B |-10-10-10/12-12-12/15-15-15--|-----17-------17-------17-------17----- --
    G |-----------------------------|--------16-------16-------16-------16-- --
    D |-----------------------------|--------------------------------------- --
    A |-----------------------------|--------------------------------------- --
    E |-----------------------------|--------------------------------------- --



    E |---15-------15-------15-------15/slide down----------------------------
    B |------17-------17-------17------------------------------------------- --
    G |---------16-------16-------16---------------------------------------- --
    D |--------------------------------------------------------------------- --
    A |--------------------------------------------------------------------- --
    E |--------------------------------------------------------------------- --

    * End INTRO

    Now,the guitars play the same riff together

    * RIFF D
    E |--------------------------------------------------------------------- --
    B |--------------------------------------------------------------------- --
    G |-----------------------------------------7^-------------------------- --
    D |----2-2-2-5-2-2-2-2-2-5-2-2-2-2-2-5-2-2--5^--7^---------------------- --
    A |---------------------------------------------5^---------------------- --
    E |--------------------------------------------------------------------- --
    (Repeat 4 times)

    E |--------------------------------------------------------------------- --
    B |--------------------------------------------------------------------- --
    G |--------------------------------------------------------------------- --
    D |----4-4-4-7-4-4-4-4-4-7-4-4/5-5-5-8-5-5-5-5-5-8-5-5------------------ --
    A |--------------------------------------------------------------------- --
    E |--------------------------------------------------------------------- --
    (Repeat 3 times)
    * End RIFF D


    * RIFF C
    E |--------------------------------------------------------------------- --
    B |--------------------------------------------------------------------- --
    G |---9--9--X--X--4--4--X--X--5--5--X--X--7--7--X--X-------------------- --
    D |---9--9--X--X--4--4--X--X--5--5--X--X--7--7--X--X-------------------- --
    A |---7--7--X--X--2--2--X--X--3--3--X--X--5--5--X--X-------------------- --
    E |--------------------------------------------------------------------- --
    * End RIFF C


    * RIFF A
    E |--------------------------------------------------------------------- --
    B |-----------------------------------------3--3--3--------------------- --
    G |-----------------------------------------2--2--2--------------------- --
    D |----2-2-2-5-2-2-2-2-2-5-2-2-2-2-2-5-2-2--0--0--0--------------------- --
    A |--------------------------------------------------------------------- --
    E |--------------------------------------------------------------------- --
    ( Repeat 2 times )
    * End RIFF A


    * RIFF B
    E |--------------------------------------------------------------------- --
    B |--------------------------------------------------------------------- --
    G |------4-4-4-5p4---7-4---5-4------------------------------------------ --
    D |---/5-----------5-----5-----5-4-5-7---------------------------------- --
    A |--------------------------------------------------------------------- --
    E |--------------------------------------------------------------------- --
    * End RIFF B





    The song goes like this :

    INTRO

    RIFF D
    RIFF C
    RIFF A
    RIFF C
    RIFF A

    RIFF B (Vocals)
    RIFF A (Ooooohh...)
    RIFF B (Vocals)
    RIFF A (Ooooohh...)
    RIFF C (Vocals)
    RIFF A (Ooooohh...)
    RIFF C (Vocals)

    RIFF A

    RIFF B (Vocals)
    RIFF A (Ooooohh...)
    RIFF B (Vocals)
    RIFF A (Ooooohh...)
    RIFF C (Vocals)
    RIFF A (Ooooohh...)
    RIFF C (Vocals)

    RIFF A
    RIFF C


    * RIFF E
    E |--------------------------------------------------------------------- --
    B |--------------------------------------------------------------------- --
    G |-------9-------9-------9----9^-7^------9-------9-------9----9^-7^---- ---
    D |-----9---9---9---9---9---9--9^-7^----9---9---9---9---9---9--7^-5^---- ---
    A |---7-------7-------7--------7^-5^--7-------7-------7--------7^-5^---- ---
    E |--------------------------------------------------------------------- --
    <-------Palm Mute-------> <-------Palm Mute------->


    E |--------------------------------------------------------------------- --
    B |-------7-------7-------5-------5------------------------------------- --
    G |-----7---7---7-------5---5---5--------------------------------------- --
    D |---5-------5-------3-------3----------------------------------------- --
    A |--------------------------------------------------------------------- --
    E |--------------------------------------------------------------------- --
    <----------Palm Mute------------>

    E |--------------------------------------------------------------------- --
    B |--------------------------------------------------------------------- --
    G |-------9-------9-------9----9^-7^------------------------------------ --
    D |-----9---9---9---9---9---9--9^-7^------------------------------------ --
    A |---7-------7-------7--------7^-5^------------------------------------ --
    E |--------------------------------------------------------------------- --
    <----------Palm Mute------------>

    * End RIFF E


    RIFF E
    RIFF E ( Vocals: Keep your distance,walk away...)
    ...

    * SOLO ( The second guitar play arpegians behind )

    C Em

    E |-------------12---------|-------------------------------------------- --
    B |---------/12----15b(17)-|-15b(17)rb(15)p12--14b(16)rb(14)p1214b(16)~~ --
    G |-14b(16)----------------|-------------------------------------------- --
    D |------------------------|-------------------------------------------- --
    A |------------------------|-------------------------------------------- --
    E |------------------------|-------------------------------------------- --


    F G Em

    E |---13-12h13p12----15-12h13p12h13p12h13p12---------------------------- --
    B |---------------15--------------------------15b(17)~~----------------- --
    G |--------------------------------------------------------------------- --
    D |--------------------------------------------------------------------- --
    A |--------------------------------------------------------------------- --
    E |--------------------------------------------------------------------- --


    C Em

    E |--------------------------------------------------------------------- --
    B |-------15-17b(19)rb(17)~-17b(20)rb(17)b(20)rb17~-15h17p15------------ --
    G |---/16----------------------------------------------------16~-------- --
    D |--------------------------------------------------------------------- --
    A |--------------------------------------------------------------------- --
    E |--------------------------------------------------------------------- --


    F G Em

    E |-12-13-12h13p12----15-12h13p12h13p12h13p12--------------------------- -
    B |----------------15---------------------------15b(17)~~--------------- ---
    G |--------------------------------------------------------------------- --
    D |--------------------------------------------------------------------- --
    A |--------------------------------------------------------------------- --
    E |--------------------------------------------------------------------- --


    C

    E |--/14-15-17-17b(19)~~-17b(19)rb(17)p14h17p14h17p14h17p14~~--14------- --
    B |--------------------------------------------------------------------- --
    G |--------------------------------------------------------------------- --
    D |--------------------------------------------------------------------- --
    A |--------------------------------------------------------------------- --
    E |--------------------------------------------------------------------- --

    Em

    E |---14h15p14h15p14/12h14p12h14p12------------------------------------- --
    B |---------------------------------15b(17)~---------------------------- --
    G |--------------------------------------------------------------------- --
    D |--------------------------------------------------------------------- --
    A |--------------------------------------------------------------------- --
    E |--------------------------------------------------------------------- --





    F G Em

    E |-12-13-12h13p12----15-12h13p12h13p12h13p12--------------------------- --
    B |----------------15---------------------------15b(17)~~--------------- --
    G |--------------------------------------------------------------------- --
    D |--------------------------------------------------------------------- --
    A |--------------------------------------------------------------------- --
    E |--------------------------------------------------------------------- --

    C Em
    E |--------------------------------------------------------------------- --
    B |--------------------------------------------------------------------- --
    G |--/12-14-14b(16)rb(14)b(16)-12h14p12h14p12/11~-11-12-11h12p11h12p11/- --
    D |--------------------------------------------------------------------- --
    A |--------------------------------------------------------------------- --
    E |--------------------------------------------------------------------- --


    E |--------------------------------------------------------------------- --
    B |--------------------------------------------------------------------- --
    G |--/9h11p9h11p9/7h9p7h9p7-7b(9)--------------------------------------- --
    D |--------------------------------------------------------------------- --
    A |--------------------------------------------------------------------- --
    E |--------------------------------------------------------------------- --


    F G Em

    E |-12-13-12h13p12----15-12h13p12h13p12h13p12--------------------------- --
    B |----------------15---------------------------15b(17)~~~~~~----------- --
    G |--------------------------------------------------------------------- --
    D |--------------------------------------------------------------------- --
    A |--------------------------------------------------------------------- --
    E |--------------------------------------------------------------------- --

    *End SOLO

    Bassline then,the slaughtering begin !! ( And not for your daughter )
    There's 2 Guitars on harmony

    *Guitar One :
    ------------
    Repeat 4 times (Em,D,C,D) but in the 4th,play the RIFF F instead of
    the last part (Chord D)

    Em

    E |--15-------15-------15-------15-------------------------------------- --
    B |-----17-------17-------17-------17----------------------------------- --
    G |--------16-------16-------16-------16-------------------------------- --
    D |--------------------------------------------------------------------- --
    A |--------------------------------------------------------------------- --
    E |--------------------------------------------------------------------- --

    D

    E |--14-------14-------14-------14-------------------------------------- --
    B |-----15-------15-------15-------15----------------------------------- --
    G |--------14-------14-------14-------14-------------------------------- --
    D |--------------------------------------------------------------------- --
    A |--------------------------------------------------------------------- --
    E |--------------------------------------------------------------------- --

    C

    E |--15-------15-------15-------15-------------------------------------- --
    B |-----17-------17-------17-------17----------------------------------- --
    G |--------15-------15-------15-------15-------------------------------- --
    D |--------------------------------------------------------------------- --
    A |--------------------------------------------------------------------- --
    E |--------------------------------------------------------------------- --


    D

    E |--14-------14-------14-------14-------------------------------------- --
    B |-----15-------15-------15-------15----------------------------------- --
    G |--------14-------14-------14-------14-------------------------------- --
    D |--------------------------------------------------------------------- --
    A |--------------------------------------------------------------------- --
    E |--------------------------------------------------------------------- --


    *RIFF F

    C D

    E |--12-12-12-12-12-12------14-14-14-14-14-14--------------------------- --
    B |--------------------------------------------------------------------- --
    G |--------------------------------------------------------------------- --
    D |--------------------------------------------------------------------- --
    A |--------------------------------------------------------------------- --
    E |--------------------------------------------------------------------- --
    *End RIFF F


    Play the next part (Em,D,C,RIFF F) 2 times

    Then play (Em,D,C,RIFF G,Em,D,C,RIFF H)

    *RIFF G

    C D

    E |----------------------17-15-14--------------------------------------- --
    B |----17-15----17-15-------------17-15--------------------------------- --
    G |----------17-------17----------------16------------------------------ --
    D |--------------------------------------------------------------------- --
    A |--------------------------------------------------------------------- --
    E |--------------------------------------------------------------------- --
    *End RIFF G


    *RIFF H

    C D

    E |-------------------------------17-15-14------------------------------ --
    B |----17-15----17-15----17-15------------------------------------------ --
    G |----------17-------17-------17--------------------------------------- --
    D |--------------------------------------------------------------------- --
    A |--------------------------------------------------------------------- --
    E |--------------------------------------------------------------------- --
    *End RIFF H


    *Guitar two :
    -------------

    Repeat 4 times (Em,D,C,D) but in the 4th,play the RIFF I instead of
    the last part (Chord D)

    Em

    E |--19h15----19h15-----19h15----19h15---------------------------------- --
    B |--------17-------17--------17-------17------------------------------- --
    G |--------------------------------------------------------------------- --
    D |--------------------------------------------------------------------- --
    A |--------------------------------------------------------------------- --
    E |--------------------------------------------------------------------- --

    D

    E |--17h14----17h14-----17h14----17h14---------------------------------- --
    B |--------15-------15--------15-------15------------------------------- --
    G |--------------------------------------------------------------------- --
    D |--------------------------------------------------------------------- --
    A |--------------------------------------------------------------------- --
    E |--------------------------------------------------------------------- --

    C

    E |--15h12----15h12-----15h12----15h12---------------------------------- --
    B |--------13-------13--------13-------13------------------------------- --
    G |--------------------------------------------------------------------- --
    D |--------------------------------------------------------------------- --
    A |--------------------------------------------------------------------- --
    E |--------------------------------------------------------------------- --

    D

    E |--17h14----17h14-----17h14----17h15---------------------------------- --
    B |--------15-------15--------15-------15------------------------------- --
    G |--------------------------------------------------------------------- --
    D |--------------------------------------------------------------------- --
    A |--------------------------------------------------------------------- --
    E |--------------------------------------------------------------------- --

    * RIFF I

    C D

    E |--12-12-12-12-12-12--14-14-14-14-14-14------------------------------- --
    B |--13-13-13-13-13-13--15-15-15-15-15-15------------------------------- --
    G |--------------------------------------------------------------------- --
    D |--------------------------------------------------------------------- --
    A |--------------------------------------------------------------------- --
    E |--------------------------------------------------------------------- --

    * End RIFF I

    Play the next part (Em,D,C,RIFF I) 2 times

    Then play (Em,D,C,RIFF J,Em,D,C,RIFF K)






    * RIFF J

    C D

    E |----------------------13-12------------------------------------------ --
    B |----13-12----13-12----------15-13-12--------------------------------- --
    G |----------14-------14----------------14------------------------------ --
    D |--------------------------------------------------------------------- --
    A |--------------------------------------------------------------------- --
    E |--------------------------------------------------------------------- --
    * End RIFF J


    * RIFF K

    C D

    E |-------------------------------13-12--------------------------------- --
    B |----13-12----13-12----13-12----------15------------------------------ --
    G |----------14-------14-------14--------------------------------------- --
    D |----------------------------------------------------------

    Steven Seagal
    Veterano
    # fev/04
    · votar


    [primeiro riff (intro)

    guit 1
    e---------------------------------------------------------------
    b---------------------------------------------------------------
    g---------------------------------------------------------------
    d--------------------------------------------------------5------ -
    a---7---7---7p5-------5---5---5p3-------3--3--3p2-----5-----5--7
    E-----------------7-----------------5--------------3------------

    guit 2
    e---------------------------------------------------------------
    b--------------------------------------------------------------
    g---------------------------------------------------------------
    d---5---5---5p4------4--4--4p2-----2--2--2p0------5--------------
    a----------------7---------------5-----------3--5-----5--7--------
    E----------------------------------------------------------------

    seg riff

    guit 2 (depois eu boto da guit 1)
    e--------------------------------------------------------------------- -
    b--------------------------------------------------------------------- -
    g---------------7----------------------------------------------------- -----
    d--9--7h9p7h------9--7h9p7h----9-------------------------------------- ---
    a------------10-------------10---10--10--9--10--9--10----------------- -----
    E--------------------------------------------------------------------- ---

    Gab
    Veterano
    # fev/04
    · votar


    Valeu!!!

    Gab
    Veterano
    # fev/04
    · votar


    Valeu!!!

    Gab
    Veterano
    # fev/04
    · votar


    Aqui vai a tab de tnotb q eu fiz:

    Musica : The Number Of The Beast(Steve Harris)
    Disco : The Number Of The Beast

    Tabbed by: Gabriel(A.K.A: Gab,Agente Smith)
    h-hammer-om
    p-pull-of
    >-acentuar nota
    /ou\-slide
    tr-trinado
    ha-harmonico artificial
    hn-harmonico natural
    pm-palm mute
    b^-bend 1 tom
    b^^bend 2 tons
    b-bend 1/2 tom
    r-reverse bend
    P(na frente de qquer bend)-pre bend
    T-tapping
    ~-vibrato
    (/)-bend de alavanca (aumentando)
    (\)-bend de alavanca (decendo)


    Rhytm. Fig. 1a


    E|-----------------|----------------------------|
    B|-----------------|----------------------------|
    G|-----------------|----------------------------|
    D|---------4---5---|-7-----7-----7-----7-----7--|
    A|---5-5-5---5---5-|-5-5-5-5-5-5-5-5-5-5-5-5-5--|
    E|-----------------|----------------------------|
    pm --------------> ---> ---> ---> --->

    Rhytm. Fig. 1b

    > > > > >
    E|-----------------|----------------------------|
    B|-----------------|----------------------------|
    G|---7-7-7-7-7-7-7-|-7-7-7-7-7-7-7-7-7-7-7-7-7--|
    D|---7-7-7-7-7-7-7-|-7-7-7-7-7-7-7-7-7-7-7-7-7--|
    A|---5-5-5-5-5-5-5-|-5-5-5-5-5-5-5-5-5-5-5-5-5--|
    E|-----------------|----------------------------|
    Pm --------------> ------------------------>

    Rhytm. Fig. 2a

    E|-----------------|----------------------------|
    B|-----------------|----------------------------|
    G|-----------------|----------------------------|
    D|---------2---3---|-5-----5-----5-----5-----5--|
    A|---3-3-3---3---3-|-3-3-3-3-3-3-3-3-3-3-3-3-3--|
    E|-----------------|----------------------------|
    pm ------------> ---> ---> ---> --->


    Rhytm Fig. 2b
    > > > > >
    E|-----------------|----------------------------|
    B|-----------------|----------------------------|
    G|---5-5-5-5-5-5-5-|-5-5-5-5-5-5-5-5-5-5-5-5-5--|
    D|---5-5-5-5-5-5-5-|-5-5-5-5-5-5-5-5-5-5-5-5-5--|
    A|---3-3-3-3-3-3-3-|-3-3-3-3-3-3-3-3-3-3-3-3-3--|
    E|-----------------|----------------------------|
    pm -------------> ------------------------->


    Rhytm Fig. 3a

    E|-----------------|----------------------------|
    B|-----------------|----------------------------|
    G|-----------------|----------------------------|
    D|---------2---3---|-7-----7-----7-----7-----7--|
    A|---3-3-3---3---3-|-5-5-5-5-5-5-5-5-5-5-5-5-5--|
    E|-----------------|----------------------------|
    pm --------------> ---> ---> ---> --->

    Rhytm. Fig. 3b
    > > > > >
    E|-----------------|----------------------------|
    B|-----------------|----------------------------|
    G|---5-5-5-5-5-5-5-|-7-7-7-7-7-7-7-7-7-7-7-7-7--|
    D|---5-5-5-5-5-5-5-|-7-7-7-7-7-7-7-7-7-7-7-7-7--|
    A|---3-3-3-3-3-3-3-|-5-5-5-5-5-5-5-5-5-5-5-5-5--|
    E|-----------------|----------------------------|
    pm ------------> ------------------------>
    Rhytm. Fig. 4a

    E|------------------|------------------|------------------|
    B|------------------|------------------|------------------|
    G|---7-7-7-7---7~---|---5-5-5-5---5~---|---7-7-7-7---7~---|
    D|---7-7-7-7---7~---|---5-5-5-5---5~---|---7-7-7-7---7~---|
    A|---5-5-5-5---5~---|---3-3-3-3---3~---|---5-5-5-5---5~---|
    E|------------------|------------------|------------------|
    <-------2x------->

    Rhytm. Fig. 4b

    E|------------------|------------------|------------------|
    B|---6-6-6-6---6~---|---5-5-5-5---5~---|---6-6-6-6---6~---|
    G|---7-7-7-7---7~---|---5-5-5-5---5~---|---7-7-7-7---7~---|
    D|---7-7-7-7---7~---|---5-5-5-5---5~---|---7-7-7-7---7~---|
    A|---5-5-5-5---5~---|---3-3-3-3---3~---|---5-5-5-5---5~---|
    E|------------------|------------------|------------------|
    <-------2x------->

    Rhytm. Fig. 5a

    E|---------------------------|------------------|---------------|
    B|---------------------------|------------------|---------------|
    G|---------------------------|------------------|-7-7-7-7-7-7-7-|
    D|---7-7-7-7-----7-----7-----|------------------|-7-7-7-7-7-7-7-|
    A|---5-5-5-5-5-5-5-5-5-5-5-5-|-2/3-3-3-3\2------|-5-5-5-5-5-5-5-|
    E|---------------------------|-------------3~---|---------------|
    Pm ---> ---> --->
    <---------4x-------------->
    Rhytm. Fig. 5b

    E|---------------------------|------------------|---------------|
    B|---------------------------|------------------|---------------|
    G|---------------------------|------------------|-7-7-7-7-7-7-7-|
    D|---5h7-7-7-----7-----7-----|------------------|-7-7-7-7-7-7-7-|
    A|---5---5-5-5-5-5-5-5-5-5-5-|-2/3-3-3-3\2------|-5-5-5-5-5-5-5-|
    E|---------------------------|-------------3~---|---------------|
    Pm ---> ---> --->
    <-------------4x---------->

    Rhytm. Fig. 6a

    E|-------------|------------|-------------|--------------|
    B|-------------|-------3----|-------------|--------------|
    G|-------5-----|-------0----|-------5-----|---7--7-7-7-7-|
    D|-------5-----|-------0----|-------5-----|---7--7-7-7-7-|
    A|-------3-----|-------2----|-------3-----|---5--5-5-5-5-|
    E|-------------|------------|-------------|--------------|

    End1
    E|-------------|------------|------------|------------|
    B|-------------|-------3----|------------|------------|
    G|-------5-----|-------0----|-------5----|-------7----|
    D|-------5-----|-------0----|-------5----|-------7----|
    A|-------3-----|-------2----|-------3----|-------5----|
    E|-------------|------------|------------|------------|

    Rhytm. Fig. 6b

    E|-------------|------------|-------------|--------------|
    B|-------------|------------|-------------|--------------|
    G|-------5-----|------------|-------5-----|---7--7-7-7-7-|
    D|-------5-----|-------5----|-------5-----|---7--7-7-7-7-|
    A|-3-3-3-3-----|-2-2-2-2----|-3-3-3-3-----|---5--5-5-5-5-|
    E|-------------|------------|-------------|--------------|
    pm -----> -----> ----->

    E|-------------|------------|------------|-------------|
    B|-------------|------------|------------|-------------|
    G|-------5-----|------------|-------5----|-------7-----|
    D|-------5-----|-------5----|-------5----|-------7-----|
    A|-3-3-3-3-----|-2-2-2-2----|-3-3-3-3----|-------5-----|
    E|-------------|------------|------------|-------------|
    pm -----> -----> ----->

    Rhytm. Fig. 7

    E|-----------------|
    B|-----------------|
    G|-7-7-7-7-7-7-7-7-|
    D|-7-7-7-7-7-7-7-7-|
    A|-5-5-5-5-5-5-5-5-|
    E|-----------------|
    pm --------------->

    Riff I
    <-----------------------------------2x------------------------------->
    E|-----------------|-----------------|-----------------|-------------- ---|
    B|-3-3-3-5---3-----|-5-5-5-6---5-----|-6-6-6-8---6-6-8-|-8-8-8-8-8-8-8 -7-|
    G|-2-2-2-4---2-----|-4-4-4-5---4-----|-5-5-5-7---5-5-7-|-7-7-7-7-7-7-7 -6-|
    D|-0-0-0-0-0-0-0-0-|-0-0-0-0-0-0-0-0-|-0-0-0-0-0-0-0-0-|-0-0-0-0-0-0-0 -0-|
    A|-----------------|-----------------|-----------------|-------------- ---|
    E|-----------------|-----------------|-----------------|-------------- ---|
    pm ---> --->

    Rhytm. Fig 8

    E|----------------------------|----------------------------|
    B|----------------------------|----------------------------|
    G|-3--3-3-3-3-3-3-3-3-3-3-3-3-|----------------------------|
    D|-3--3-3-3-3-3-3-3-3-3-3-3-3-|-3--3-3-3-3-3-3-3-3-3-3-3-3-|
    A|-1--1-1-1-1-1-1-1-1-1-1-1-1-|-3--3-3-3-3-3-3-3-3-3-3-3-3-|
    E|----------------------------|-1--1-1-1-1-1-1-1-1-1-1-1-1-|
    pm --------------------------> -------------------------->
    Rhytm. Fig 9a

    E|---------------------------------|---------------------------------|
    B|---------------------------------|---------------------------------|
    G|-9-9-9-7-----7---5---------------|-5-5-5-3-----3---1---------------|
    D|-9-9-9-7-5h7---7---7-5---5-------|-5-5-5-3-1h3---3---3-1---1-------|
    A|-7-7-7-5---------------7---7-6-5-|-3-3-3-1---------------3---3-2-1-|
    E|---------------------------------|---------------------------------|

    Rhytm. Fig 9b

    E|-20b^----------------------------|---------------------------------|
    B|---------------------------------|---------------------------------|
    G|-------------7---5---------------|-5-5-5-3-----3---1---------------|
    D|-----------7---7---7-5---5-------|-5-5-5-3---3---3---3-1---1-------|
    A|-----------------------7---7-6-5-|-3-3-3-1---------------3---3-2-1-|
    E|---------------------------------|---------------------------------|

    Rhytm. Fig 10

    E|-------------|---------|---------|----------|
    B|-------------|---------|---------|----------|
    G|-------------|---------|---2-----|---5------|
    D|-5-5-5-3-----|---5-----|---2-----|---5------|
    A|-5-5-5-3-----|---5-----|---0-----|---3------|
    E|-3-3-3-1-----|---3-----|---------|----------|

    Rhytm. Fig 11

    E|---------|---------|---------|----------|
    B|---------|---------|---------|----------|
    G|-7-------|---------|---------|-3----5---|
    D|-7-------|-3-------|-5-------|-3----5---|
    A|-5-------|-3-------|-5-------|-1----3---|
    E|---------|-1-------|-3-------|----------|

    Rhytm. Fig. 12a

    E|------------------|------------------|--------------------|
    B|------------------|------------------|--------------------|
    G|---7-7-7-7---7~---|---5-5-5-5---5~---|---7-7-7-7---7-5-7\-|
    D|---7-7-7-7---7~---|---5-5-5-5---5~---|---7-7-7-7---7-5-7\-|
    A|---5-5-5-5---5~---|---3-3-3-3---3~---|---5-5-5-5---5-3-5\-|
    E|------------------|------------------|--------------------|
    <-------2x------->

    Rhytm. Fig. 12b

    E|------------------|------------------|--------------------|
    B|---6-6-6-6---6~---|---5-5-5-5---5~---|---6-6-6-6---6-5-6\-|
    G|---7-7-7-7---7~---|---5-5-5-5---5~---|---7-7-7-7---7-5-7\-|
    D|---7-7-7-7---7~---|---5-5-5-5---5~---|---7-7-7-7---7-5-7\-|
    A|---5-5-5-5---5~---|---3-3-3-3---3~---|---5-5-5-5---5-3-5\-|
    E|------------------|------------------|--------------------|
    <-------2x------->

    Sequencia da musica
    Introdução

    Rhytm. Fig. 1a(3x)
    Rhytm. Fig. 2a
    Rhytm. Fig. 3a
    Rhytm. Fig. 1a(2x)
    Rhytm. Fig. 2a
    Rhytm. Fig. 3a
    Rhytm. Fig. 1a
    Rhytm. Fig. 1a com 1b(2x)
    Rhytm. Fig. 2a com 2b
    Rhytm. Fig. 3a com 3b
    Rhytm. Fig. 1a com 1b(3x)
    Rhytm. Fig. 2a com 2b
    Rhytm. Fig. 3a com 3b
    Rhytm. Fig. 4a com 4b

    Verso 1

    Rhytm. Fig. 5a com 5b(2x)

    Refrão 1

    Rhytm. Fig. 6a com 6b (sem end 1)

    Verso 2

    Rhytm. Fig. 5a com 5b(2x)

    Refrão 2

    Rhytm. Fig. 6a com 6b (com end 1)

    Pré Solo I

    Rhytm. Fig. 7(16x) com Riff I(2x)

    Solo I

    Rhytm. Fig. 8(4x) com Solo I(não disponível)

    Pré Solo II

    Rhytm. Fig. 9a com 9b
    Rhytm. Fig. 10 com 10

    Solo II

    Rhytm. fig. 11(4x) com solo II(Não disponível)

    Solo De Baixo

    Rhytm. Fig. 11 com 11(2x)

    Verso 3

    Rhytm. Fig.5a com 5b(2x)

    Refrão 3

    Rhytm. Fig. 6a com 6b(sem end 1)

    Verso 4

    Rhytm. Fig. 1a com 1a(2x)
    Rhytm. Fig. 2a com 2a
    Rhytm. Fig. 3a com 3a
    Rhytm. Fig. 1a com 1a(2x)
    Rhytm. Fig. 2a com 2a
    Rhytm. Fig. 3a com 3a

    Fim

    Rhytm. Fig. 12a com 12b

    E aqui vai ade prowler(incompleta)
    h-hammer-on
    p-Pull-Of
    \ou/-Slide
    tr-trinado
    pm-palm mute
    hn-harmônico Natural
    ha-harmônico Artificial
    b-bend
    r-reverse
    Rhytm. Fig. 1

    E|------------------------------------|
    B|------------------------------------|
    G|------------------------------------|
    D|--9--9--9------9-----9-----9--------|
    A|--7--7--7---7--7--7--7--7--7--7-----|
    E|--0--0--0---0--0--0--0--0--0--0-----|

    Rhytm. Fig. 2

    E|------------------------------------|
    B|------------------------------------|
    G|---7--7--7------7-----7-----7-----7-|
    D|---7--7--7---7--7--7--7--7--7--7--7-|
    A|---5--5--5---5--5--5--5--5--5--5--5-|
    E|------------------------------------|

    Riff Ia End 1

    E|-/3~--2~--5b6r-p2-2--3~--|---0tr2---|
    B|-------------------------|-(Diving)-|
    G|-------------------------|----------|
    D|-------------------------|----------|
    A|-------------------------|----------|
    E|-------------------------|----------|

    Riff Ib End 1

    E|-/3~--2~--5b6r-p2-2--3~--|-0tr2-----|
    B|-------------------------|----------|
    G|-------------------------|----------|
    D|-------------------------|----------|
    A|-------------------------|----------|
    E|-------------------------|----------|

    Rhytm. Fig. 3

    E|------------------------------------|
    B|------------------------------------|
    G|------------------------------------|
    D|----------9-----9-----9-------------|
    A|----------7-----7-----7-------------|
    E|-0--0--0--0--0--0--0--0--0----------|
    pm------> --> --> -->


    Rhytm. Fig. 4

    E|------------------------------------|
    B|------------------------------------|
    G|----------7-----7-----7-------------|
    D|----------7-----7-----7-------------|
    A|-5--5--5--5--5--5--5--5-------------|
    E|------------------------------------|
    pm-------> --> -->


    Rhytm. Fig. 5

    E|------------------------------------|
    B|---3--------------------------------|
    G|---0----2---------------------------|
    D|---0----2---------------------------|
    A|--------0---------------------------|
    E|---3--------------------------------|

    Rhytm. Fig. 6a

    E|-------------------------------------------|
    B|-------------------------------------------|
    G|--10-10-10-10-10-10-10--10-----------------|
    D|--10-10-10-10-10-10-10--10-----10----10----|
    A|--8--8--8--8--8--8--8---8--8-8-8-8-8-8-8-8-|
    E|-------------------------------------------|
    pm----------------> --------------->

    Rhitm. Fig 6b

    E|------------------------------------------------|
    B|------------------------------------------------|
    G|-/10-10-10-10-10-10-10--10---10--10------10--10-|
    D|-/10-10-10-10-10-10-10--10-----------10---------|
    A|-/8--8--8--8--8--8--8---8-----------------------|
    E|------------------------------------------------|
    pm---------------->

    Rhytm. Fig 7

    E|--------------------------------------
    B|--------3------------------------------
    G|--1-----0----2---------------------------
    D|--2-----0----2---------------------------
    A|--2----------0--------------------------
    E|--0-----3-------------------------------

    Riff II

    E|-------------------------------------|
    B|--5-p0--3-p0-------------------------|
    G|--------------2-p0-------------------|
    D|-------------------2~-\--------------|
    A|-------------------------------------|
    E|-------------------------------------|

    Riff IIIa

    E|-------------------------------------|
    B|-8-7-5-7--5\-------------------------|
    G|-------------------------------------|
    D|-------------------------------------|
    A|-------------------------------------|
    E|-------------------------------------|

    Riff IIIb

    E|-10-9-7-9--7\------------------------|
    B|-------------------------------------|
    G|-------------------------------------|
    D|-------------------------------------|
    A|-------------------------------------|
    E|-------------------------------------|

    Riff IV

    E|--0--0--0--0--0--0---|--0-------------------|
    B|-8--7--5--3--5--7----|--8-------------------|
    G|---------------------|----------------------|
    D|---------------------|----------------------|
    A|---------------------|----------------------|
    E|---------------------|----------------------|



      Enviar sua resposta para este assunto
              Tablatura   
      Responder tópico na versão original
       

      Tópicos relacionados a Phantom Of the opera tab, pro SS