Solos com salto de cordas

    Autor Mensagem
    Guitarrista006
    Membro Novato
    # 20/jul/19 00:45


    Fala glr, estou querendo algumas músicas com solos legais, com várias técnicas, tipo salto de cordas, tapping, ligados etc, uns solos intermediários, (n muito difíceis pq n sou tão bom), mais para treinar. Queria que me recomendassem alguns. Obg

    Drinho
    Veterano
    # 20/jul/19 12:44
    · votar




    As ordens

    Guitarrista006
    Membro Novato
    # 20/jul/19 17:34
    · votar


    Parece um pouco difícil pra mim rsrs, mas vou tentar. Quem tiver mais pode mandar

    Delson
    Veterano
    # 22/jul/19 11:16
    · votar


    Solos com salto de cordas

    Sweet Child o' Mine

    Guitarrista006
    Membro Novato
    # 01/ago/19 10:55
    · votar


    Solos com salto de cordas

    Sweet Child o' Mine

    Esse já sei

    Buja
    Veterano
    # 01/ago/19 10:59
    · votar


    Nao sei se é bem salto de cordas, mas é uma intro linda que exige bem do conceito:

    As I Lay Dying - This Is Who We Are

    LeandroP
    Moderador
    # 01/ago/19 11:41
    · votar


    Guitarrista006

    Qualquer um do Mr. Big


    Eu costumo usar este desenho de arpejo com salto:

    Exemplo em Sol

    G | Gm
    e-----------3------------|------------3-------------
    B------------------------|--------------------------
    G-----4--7----7--4-------|------3--7-----7--3-------
    D---5---------------5----|---5-----------------5----
    A------------------------|--------------------------
    E------------------------|--------------------------


    E neste desenho você pode incluir a tensão que desejar, como uma 2a, uma 4a ou uma 6a.

    Guitarrista006
    Membro Novato
    # 10/ago/19 22:43
    · votar


    Buja
    Vou dar uma olhada, obg

    Guitarrista006
    Membro Novato
    # 10/ago/19 22:45
    · votar


    [i]Qualquer um do Mr. Big


    Eu costumo usar este desenho de arpejo com salto:

    Exemplo em Sol

    G | Gm
    e-----------3------------|------------3-------------
    B------------------------|--------------------------
    G-----4--7----7--4-------|------3--7-----7--3-------
    D---5---------------5----|---5-----------------5----
    A------------------------|--------------------------
    E------------------------|--------------------------


    E neste desenho você pode incluir a tensão que desejar, como uma 2a, uma 4a ou uma 6a.
    Obrigado pela dica :)

    LeandroP
    Moderador
    # 11/ago/19 06:26
    · votar


    Ou pentatônicas. Quase sempre uso saltos em pentatônicas. É inevitável.

    Fidel Castro
    Veterano
    # 11/ago/19 08:41
    · votar


    Você pode pegar qualquer música e tocar a parte melódica alternando entre o original e uma terça maior/menor ou mesmo trocar de oitava.

    Assim já pratica tanto a parte técnica da mão quanto a percepção musical

      Enviar sua resposta para este assunto
              Tablatura   
      Responder tópico na versão original
       

      Tópicos relacionados a Solos com salto de cordas