Duvida com Lá!

    Autor Mensagem
    GuitarGata
    Veterano
    # jan/04


    Tipo Na Musica do RappaMinha Alma A Maior Parte tem La menor ( AM ) eu toco ela em Power Acorde Normal e fica Muito chato!
    me Falaram que tem várias maneiras de Fazer uma mesma Nota alguem pode Passra uma tablatur ad e um outro tipo de lá que fique mais agudo ?

    caiohleal
    Veterano
    # jan/04
    · votar



    e-5----------------------------------------------------
    B-5----------------------------------------------------
    G-5----------------------------------------------------
    D-7----------------------------------------------------
    A-7----------------------------------------------------
    E-5----------------------------------------------------

    faça assim, e sem distorção

    LeandroP
    Moderador
    # jan/04
    · votar


    GuitarGata

    E |--5--|
    B |--5--|
    G |--5--|
    D |--7--|
    A |--0--|
    E |-----|


    -------------------
    Am9
    (Este acorde é pra deixar as cordas soarem, é muito bonito ele)

    E |--0--|
    B |--0--|
    G |--5--|
    D |--7--|
    A |--0--|
    E |-----|


    ----------------------
    Am9

    E |--7---|
    B |--10--|
    G |--9---|
    D |--7---|
    A |--0---|
    E |------|


    --------------------
    Am

    (Este acorde pode ser tanto Lá menor como Lá maior porque ele omite a terça)

    E |--5--|
    B |--5--|
    G |--2--|
    D |--2--|
    A |--0--|
    E |-----|

    GuitarHouse
    Veterano
    # jan/04
    · votar


    o cara usa muito a formacao sem o baixo em lá


    e------5------------------------------------------------
    B------5------------------------------------------------
    G------6------------------------------------------------
    D------7------------------------------------------------
    A------7------------------------------------------------
    E------------------------------------------------------


    caiohleal
    Veterano
    # jan/04
    · votar


    mesmo sem o baixo isso seria um lá maior

    Digao
    Veterano
    # jan/04
    · votar



    e------5------------------------------------------------
    B------5------------------------------------------------
    G------------------------------------------------------
    D------------------------------------------------------
    A------------------------------------------------------
    E------------------------------------------------------



    So isso... faz uins choins e pronto...

    LeandroP
    Moderador
    # jan/04
    · votar


    caiohleal

    Claro que sim. Duas notas já são suficiente pra ser fazer um Lá menor, mesmo que não tenha o baixo.

    Se você fizer um bicorde A-C

    |-----|
    |-----|
    |-----|
    |-----|
    |--3--|
    |--5--|

    ou

    |-----|
    |-----|
    |--5--|
    |--7--|
    |-----|
    |-----|

    GuitarGata
    Veterano
    # jan/04
    · votar


    opa Brigado Pessoal :)

    GuitarHouse
    Veterano
    # jan/04
    · votar


    caiohleal
    Ops..ela quer menor neh..vacilei

    e------5------------------------------------------------
    B------5------------------------------------------------
    G------5------------------------------------------------
    D------7------------------------------------------------
    A------7------------------------------------------------
    E------------------------------------------------------


    caiohleal
    Veterano
    # jan/04
    · votar


    soh, valeu, mas ñ é isso, é q tipo ela pediu lá encima um Am, e o cara colocou um A, daí eu falei q aquilo era um A e ñ um Am

    caiohleal
    Veterano
    # jan/04
    · votar


    isso mesmo

    GuitarGata
    Veterano
    # jan/04
    · votar


    Brigado Pessoal !
    Como Faço Para descobrir assim em outros Tons! ???

    Tipo e se eu quiser descobrii um F C etcccc ..... ?

    GuitarHouse
    Veterano
    # jan/04
    · votar


    "arreda" as notas proporcionalmente

      Enviar sua resposta para este assunto
              Tablatura   
      Responder tópico na versão original
       

      Tópicos relacionados a Duvida com Lá!