((((((((( Uma Festa Rave com a Guitarra (Composição) )))))))

    Autor Mensagem
    krixzy
    Veterano
    # jun/14 · Editado por: krixzy


    E ai galera, tava aqui brincando e explorando uns VSTs, dai começou a sair esse som, escutem e comentem o que acharam ^^

    https://soundcloud.com/krixzy/rave/s-QqDRI

    cafe_com_leite
    Veterano
    # jun/14
    · votar


    krixzy
    Faltou a batida po! Coloca um putz putz putz aí que fica daora. Ou faz diferente e coloca uma batida de forró.

    krixzy
    Veterano
    # jun/14
    · votar


    cafe_com_leite
    Pior que n sei fazer o som da bateria com vsts :(

    Pé de chinelo
    Veterano
    # jun/14
    · votar


    krixzy

    po curti

    com um baixo e uma batera , uma mix mais cheia, ia ficar show cara

    eu pilho de fazer uma collab com vc, se quiser, pra fazer isso ficar mais profissa

    krixzy
    Veterano
    # jun/14
    · votar


    Pé de chinelo
    Se quiser pode fazer, esse som ai ta a 150 bpm, vou liberar pra vc baixar ela. Eu só sei gravar mesmo, não faço ideia de como montar um som de bateria e baixo, a melodia ali no meio podia ser um teclado, acho q ficaria melhor.

    Maycão
    Veterano
    # jun/14
    · votar


    krixzy

    Cara ficou bem doidão mesmo, cara de música eletrônica. Ficou bem alucinante hehe

    Pé de chinelo
    Veterano
    # jun/14
    · votar


    krixzy

    blz, tem como vc passar a tab ou o tom q vc tocou?

    krixzy
    Veterano
    # jun/14 · Editado por: krixzy
    · votar


    A tab:

    150 BPM
    Primeiro Riff
     
    eb------------------------------------------------------
    Bb------------------------------------------------------
    Gb------------------------------------------------------
    Db------------------------------------------------------
    Ab----12---7---10---7-----------------------------------
    Eb--0----0---0----0-------------------------------------



    Segundo Riff
     
    eb------------------------------------------------------
    Bb------------------------------------------------------
    Gb------------------------------------------------------
    Db-----10---10---9---5---7---7--------------------------
    Ab---0----0----0---0---0---0----------------------------
    Eb------------------------------------------------------



    Solo 2x

    eb-19----15-17-------------------17----15----------------
    Bb----17-------15-15-17-17-17-17----15----19-17-17-17-17-
    Gb-------------------------------------------------------
    Db-------------------------------------------------------
    Ab-------------------------------------------------------
    Eb-------------------------------------------------------



    Terceiro Riff

    eb------------------------------------------------------
    Bb----15---15---15---15---11---11---17---17-------------
    Gb----14---14---14---14---10---10---16---16-------------
    Db-------0----0----0----0----0----0----0----0-----------
    Ab------------------------------------------------------
    Eb------------------------------------------------------


    O tom que foi incrível, pq quando comecei a compor esse sonsinho ai eu nem usei escala nem procurei tom kkkk... foi tudo no ouvido mesmo, ai analisando aqui as notas, bate certinho no campo harmônico menor natural em Emb.

    krixzy
    Veterano
    # jun/14 · Editado por: krixzy
    · votar


    Fiz uma tab no guitar pro.

    http://www.4shared.com/file/Q0lgYBh0ce/Rave__1_.html

    Jube
    Veterano
    # jun/14
    · votar


    krixzy
    A ideia ficou muito boa, se colocar um baixo, uma batera e uns pads, da pra complementar ainda mais sua ideia.

    Pé de chinelo
    Veterano
    # jun/14
    · votar


    krixzy
    Jube

    Galera vamos fazer uma colab, desse som, vai ficar doidera demais, vou gravar um baixo!

    krixzy
    Veterano
    # jun/14
    · votar


    Pé de chinelo
    Blz, to vendo aqui umas ideias pra acrescentar ao som.

    NINO_D.BOB
    Membro Novato
    # jun/14
    · votar


    Opa, baixando pra colocar a Batera e os Synts.

    krixzy
    Veterano
    # jun/14
    · votar


    NINO_D.BOB
    Opa, mais um pra festa rs...

    Pé de chinelo
    Veterano
    # jun/14
    · votar


    NINO_D.BOB

    Então vou esperar sua bateria pra gravar o baixo!

    Jube

    vc faz os teclados então né

    ===========

    vamos postando aqui nesse tópico as gravações que forem sendo feitas, vlw

    krixzy
    Veterano
    # ago/14
    · votar


    Ninguém? Desistiram? uahsuahuahsuahs... tenso teria ficado legal...

      Enviar sua resposta para este assunto
              Tablatura   
      Responder tópico na versão original
       

      Tópicos relacionados a ((((((((( Uma Festa Rave com a Guitarra (Composição) )))))))